ISO-10303-21;
HEADER;
/****************************************************************
 * Generated by software with PDE/Lib inside                    *
 * PDElib Version v51a, created Thu 12/14/2006                  *
 * International Technegroup Inc. (www.iti-oh.com)              *
 ****************************************************************/
FILE_DESCRIPTION((''),'2;1');
FILE_NAME('\\\\VICISRV2\\am\\Vault,D-CL_VICI\\Tech-Support\\Dimension Fittings\\Step Dateien\\310154-ZF.5 Ferrule.stp','2008-08-07T17:11:07',('Franzp'),(''),'Autodesk Inventor 2008','Autodesk Inventor 2008','');
FILE_SCHEMA(('AUTOMOTIVE_DESIGN { 1 0 10303 214 1 1 1 1 }'));
ENDSEC;
DATA;
#5=APPLICATION_CONTEXT('automotive design');
#6=APPLICATION_PROTOCOL_DEFINITION('International Standard','automotive_design',2001,#5);
#7=PRODUCT_CONTEXT('',#5,'mechanical');
#8=PRODUCT('310154','310154',$,(#7));
#9=PRODUCT_RELATED_PRODUCT_CATEGORY('part',$,(#8));
#10=PRODUCT_DEFINITION_FORMATION('',$,#8);
#11=PRODUCT_DEFINITION_CONTEXT('part definition',#5,'design');
#12=PRODUCT_DEFINITION('',$,#10,#11);
#18=(NAMED_UNIT(*)PLANE_ANGLE_UNIT()SI_UNIT($,.RADIAN.));
#19=DIMENSIONAL_EXPONENTS(0.0,0.0,0.0,0.0,0.0,0.0,0.0);
#20=PLANE_ANGLE_MEASURE_WITH_UNIT(PLANE_ANGLE_MEASURE(0.017453292500000),#18);
#24=(CONVERSION_BASED_UNIT('DEGREE',#20)NAMED_UNIT(#19)PLANE_ANGLE_UNIT());
#28=(NAMED_UNIT(*)SI_UNIT($,.STERADIAN.)SOLID_ANGLE_UNIT());
#32=(LENGTH_UNIT()NAMED_UNIT(*)SI_UNIT(.MILLI.,.METRE.));
#34=UNCERTAINTY_MEASURE_WITH_UNIT(LENGTH_MEASURE(0.010000000000000),#32,'DISTANCE_ACCURACY_VALUE','');
#36=(GEOMETRIC_REPRESENTATION_CONTEXT(3)GLOBAL_UNCERTAINTY_ASSIGNED_CONTEXT((#34))GLOBAL_UNIT_ASSIGNED_CONTEXT((#24,#28,#32))REPRESENTATION_CONTEXT('None','None'));
#37=AXIS2_PLACEMENT_3D('',#38,#39,#40);
#38=CARTESIAN_POINT('',(0.0,0.0,0.0));
#39=DIRECTION('',(0.0,0.0,1.0));
#40=DIRECTION('',(1.0,0.0,0.0));
#41=SHAPE_REPRESENTATION('',(#37),#36);
#42=PRODUCT_DEFINITION_SHAPE('','',#12);
#43=SHAPE_DEFINITION_REPRESENTATION(#42,#41);
#49=(NAMED_UNIT(*)PLANE_ANGLE_UNIT()SI_UNIT($,.RADIAN.));
#50=DIMENSIONAL_EXPONENTS(0.0,0.0,0.0,0.0,0.0,0.0,0.0);
#51=PLANE_ANGLE_MEASURE_WITH_UNIT(PLANE_ANGLE_MEASURE(0.017453292500000),#49);
#55=(CONVERSION_BASED_UNIT('DEGREE',#51)NAMED_UNIT(#50)PLANE_ANGLE_UNIT());
#59=(NAMED_UNIT(*)SI_UNIT($,.STERADIAN.)SOLID_ANGLE_UNIT());
#63=(LENGTH_UNIT()NAMED_UNIT(*)SI_UNIT(.MILLI.,.METRE.));
#65=UNCERTAINTY_MEASURE_WITH_UNIT(LENGTH_MEASURE(0.000001000000000),#63,'DISTANCE_ACCURACY_VALUE','');
#67=(GEOMETRIC_REPRESENTATION_CONTEXT(3)GLOBAL_UNCERTAINTY_ASSIGNED_CONTEXT((#65))GLOBAL_UNIT_ASSIGNED_CONTEXT((#55,#59,#63))REPRESENTATION_CONTEXT('','3D'));
#68=CARTESIAN_POINT('',(3.168064973081038,0.0,0.0));
#69=DIRECTION('',(-1.0,0.0,0.0));
#70=DIRECTION('',(0.0,0.0,1.0));
#71=AXIS2_PLACEMENT_3D('',#68,#69,#70);
#72=CONICAL_SURFACE('',#71,1.293799999999999,60.000000000000036);
#73=CARTESIAN_POINT('',(3.181805909487751,-1.270000000000000,1.555250E-016));
#74=VERTEX_POINT('',#73);
#75=CARTESIAN_POINT('',(3.181805909487751,5.844690E-016,0.0));
#76=DIRECTION('',(-1.0,0.0,0.0));
#77=DIRECTION('',(0.0,1.0,0.0));
#78=AXIS2_PLACEMENT_3D('',#75,#76,#77);
#79=CIRCLE('',#78,1.270000000000000);
#80=EDGE_CURVE('',#74,#74,#79,.T.);
#81=ORIENTED_EDGE('',*,*,#80,.F.);
#82=EDGE_LOOP('',(#81));
#83=FACE_OUTER_BOUND('',#82,.T.);
#84=CARTESIAN_POINT('',(3.225800000000000,0.0,1.193800000000000));
#85=VERTEX_POINT('',#84);
#86=CARTESIAN_POINT('',(3.225800000000000,0.0,0.0));
#87=DIRECTION('',(1.0,0.0,0.0));
#88=DIRECTION('',(0.0,0.0,1.0));
#89=AXIS2_PLACEMENT_3D('',#86,#87,#88);
#90=CIRCLE('',#89,1.193800000000000);
#91=EDGE_CURVE('',#85,#85,#90,.T.);
#92=ORIENTED_EDGE('',*,*,#91,.F.);
#93=EDGE_LOOP('',(#92));
#94=FACE_BOUND('',#93,.T.);
#95=ADVANCED_FACE('',(#83,#94),#72,.T.);
#96=CARTESIAN_POINT('',(3.283535026918963,0.0,0.0));
#97=DIRECTION('',(1.0,0.0,0.0));
#98=DIRECTION('',(0.0,0.0,1.0));
#99=AXIS2_PLACEMENT_3D('',#96,#97,#98);
#100=CONICAL_SURFACE('',#99,1.293799999999999,60.000000000000036);
#101=CARTESIAN_POINT('',(3.269794090512250,-1.270000000000000,-1.555250E-016));
#102=VERTEX_POINT('',#101);
#103=CARTESIAN_POINT('',(3.269794090512250,6.006316E-016,0.0));
#104=DIRECTION('',(1.0,0.0,0.0));
#105=DIRECTION('',(0.0,1.0,0.0));
#106=AXIS2_PLACEMENT_3D('',#103,#104,#105);
#107=CIRCLE('',#106,1.270000000000000);
#108=EDGE_CURVE('',#102,#102,#107,.T.);
#109=ORIENTED_EDGE('',*,*,#108,.F.);
#110=EDGE_LOOP('',(#109));
#111=FACE_OUTER_BOUND('',#110,.T.);
#112=ORIENTED_EDGE('',*,*,#91,.T.);
#113=EDGE_LOOP('',(#112));
#114=FACE_BOUND('',#113,.T.);
#115=ADVANCED_FACE('',(#111,#114),#100,.T.);
#116=CARTESIAN_POINT('',(3.335253333688626,6.126559E-016,0.0));
#117=DIRECTION('',(1.0,1.836910E-016,0.0));
#118=DIRECTION('',(0.0,1.0,0.0));
#119=AXIS2_PLACEMENT_3D('',#116,#117,#118);
#120=CYLINDRICAL_SURFACE('',#119,1.270000000000000);
#121=CARTESIAN_POINT('',(3.556000000000000,1.270000000000001,-3.081488E-032));
#122=VERTEX_POINT('',#121);
#123=CARTESIAN_POINT('',(3.556000000000000,6.532050E-016,0.0));
#124=DIRECTION('',(1.0,0.0,0.0));
#125=DIRECTION('',(0.0,-1.0,0.0));
#126=AXIS2_PLACEMENT_3D('',#123,#124,#125);
#127=CIRCLE('',#126,1.270000000000000);
#128=EDGE_CURVE('',#122,#122,#127,.T.);
#129=ORIENTED_EDGE('',*,*,#128,.F.);
#130=EDGE_LOOP('',(#129));
#131=FACE_OUTER_BOUND('',#130,.T.);
#132=ORIENTED_EDGE('',*,*,#108,.T.);
#133=EDGE_LOOP('',(#132));
#134=FACE_BOUND('',#133,.T.);
#135=ADVANCED_FACE('',(#131,#134),#120,.T.);
#136=CARTESIAN_POINT('',(3.556000000000000,6.532050E-016,0.0));
#137=DIRECTION('',(1.0,1.836910E-016,0.0));
#138=DIRECTION('',(0.0,0.0,-1.0));
#139=AXIS2_PLACEMENT_3D('',#136,#137,#138);
#140=TOROIDAL_SURFACE('',#139,1.016000000000000,0.254000000000000);
#141=ORIENTED_EDGE('',*,*,#128,.T.);
#142=EDGE_LOOP('',(#141));
#143=FACE_OUTER_BOUND('',#142,.T.);
#144=CARTESIAN_POINT('',(3.810000000000000,1.016000000000001,-2.488400E-016));
#145=VERTEX_POINT('',#144);
#146=CARTESIAN_POINT('',(3.810000000000000,6.998625E-016,0.0));
#147=DIRECTION('',(-1.0,0.0,0.0));
#148=DIRECTION('',(0.0,-1.0,0.0));
#149=AXIS2_PLACEMENT_3D('',#146,#147,#148);
#150=CIRCLE('',#149,1.016000000000000);
#151=EDGE_CURVE('',#145,#145,#150,.T.);
#152=ORIENTED_EDGE('',*,*,#151,.T.);
#153=EDGE_LOOP('',(#152));
#154=FACE_BOUND('',#153,.T.);
#155=ADVANCED_FACE('',(#143,#154),#140,.T.);
#156=CARTESIAN_POINT('',(3.810000000000000,0.635000000000001,0.0));
#157=DIRECTION('',(1.0,0.0,0.0));
#158=DIRECTION('',(0.0,0.0,-1.0));
#159=AXIS2_PLACEMENT_3D('',#156,#157,#158);
#160=PLANE('',#159);
#161=ORIENTED_EDGE('',*,*,#151,.F.);
#162=EDGE_LOOP('',(#161));
#163=FACE_OUTER_BOUND('',#162,.T.);
#164=CARTESIAN_POINT('',(3.810000000000000,0.527050000000001,6.454288E-017));
#165=VERTEX_POINT('',#164);
#166=CARTESIAN_POINT('',(3.810000000000000,6.998625E-016,0.0));
#167=DIRECTION('',(1.0,0.0,0.0));
#168=DIRECTION('',(0.0,-1.0,0.0));
#169=AXIS2_PLACEMENT_3D('',#166,#167,#168);
#170=CIRCLE('',#169,0.527050000000000);
#171=EDGE_CURVE('',#165,#165,#170,.T.);
#172=ORIENTED_EDGE('',*,*,#171,.F.);
#173=EDGE_LOOP('',(#172));
#174=FACE_BOUND('',#173,.T.);
#175=ADVANCED_FACE('',(#163,#174),#160,.T.);
#176=CARTESIAN_POINT('',(3.335253333688626,6.126559E-016,0.0));
#177=DIRECTION('',(1.0,1.836910E-016,0.0));
#178=DIRECTION('',(0.0,1.0,0.0));
#179=AXIS2_PLACEMENT_3D('',#176,#177,#178);
#180=CYLINDRICAL_SURFACE('',#179,1.270000000000000);
#181=ORIENTED_EDGE('',*,*,#80,.T.);
#182=EDGE_LOOP('',(#181));
#183=FACE_OUTER_BOUND('',#182,.T.);
#184=CARTESIAN_POINT('',(2.860506667377253,1.270000000000001,0.0));
#185=VERTEX_POINT('',#184);
#186=CARTESIAN_POINT('',(2.860506667377253,5.254492E-016,0.0));
#187=DIRECTION('',(1.0,0.0,0.0));
#188=DIRECTION('',(0.0,1.0,0.0));
#189=AXIS2_PLACEMENT_3D('',#186,#187,#188);
#190=CIRCLE('',#189,1.270000000000000);
#191=EDGE_CURVE('',#185,#185,#190,.T.);
#192=ORIENTED_EDGE('',*,*,#191,.T.);
#193=EDGE_LOOP('',(#192));
#194=FACE_BOUND('',#193,.T.);
#195=ADVANCED_FACE('',(#183,#194),#180,.T.);
#196=CARTESIAN_POINT('',(3.771900000000000,6.928639E-016,0.0));
#197=DIRECTION('',(1.0,1.836910E-016,0.0));
#198=DIRECTION('',(0.0,-1.0,0.0));
#199=AXIS2_PLACEMENT_3D('',#196,#197,#198);
#200=CONICAL_SURFACE('',#199,0.488950000000000,44.999999999999744);
#201=CARTESIAN_POINT('',(3.733800000000000,0.450850000000001,-5.521138E-017));
#202=VERTEX_POINT('',#201);
#203=CARTESIAN_POINT('',(3.733800000000000,6.858653E-016,0.0));
#204=DIRECTION('',(-1.0,0.0,0.0));
#205=DIRECTION('',(0.0,-1.0,0.0));
#206=AXIS2_PLACEMENT_3D('',#203,#204,#205);
#207=CIRCLE('',#206,0.450850000000000);
#208=EDGE_CURVE('',#202,#202,#207,.T.);
#209=ORIENTED_EDGE('',*,*,#208,.T.);
#210=EDGE_LOOP('',(#209));
#211=FACE_OUTER_BOUND('',#210,.T.);
#212=ORIENTED_EDGE('',*,*,#171,.T.);
#213=EDGE_LOOP('',(#212));
#214=FACE_BOUND('',#213,.T.);
#215=ADVANCED_FACE('',(#211,#214),#200,.F.);
#216=CARTESIAN_POINT('',(3.733800000000000,-0.450849999999999,-5.521138E-017));
#217=CARTESIAN_POINT('',(-2.220446E-016,-0.450850000000000,-5.521138E-017));
#218=CARTESIAN_POINT('',(3.733800000000000,-0.450849999999999,-0.450850000000000));
#219=CARTESIAN_POINT('',(-2.220446E-016,-0.450850000000000,-0.450850000000000));
#220=CARTESIAN_POINT('',(3.733800000000000,7.410767E-016,-0.450850000000000));
#221=CARTESIAN_POINT('',(-2.220446E-016,5.521138E-017,-0.450850000000000));
#222=CARTESIAN_POINT('',(3.733800000000000,0.450850000000001,-0.450850000000000));
#223=CARTESIAN_POINT('',(-2.220446E-016,0.450850000000000,-0.450850000000000));
#224=CARTESIAN_POINT('',(3.733800000000000,0.450850000000001,5.521138E-017));
#225=CARTESIAN_POINT('',(-2.220446E-016,0.450850000000000,5.521138E-017));
#226=CARTESIAN_POINT('',(3.733800000000000,0.450850000000001,0.450850000000000));
#227=CARTESIAN_POINT('',(-2.220446E-016,0.450850000000000,0.450850000000000));
#228=CARTESIAN_POINT('',(3.733800000000000,6.306539E-016,0.450850000000000));
#229=CARTESIAN_POINT('',(-2.220446E-016,-5.521138E-017,0.450850000000000));
#230=CARTESIAN_POINT('',(3.733800000000000,-0.450849999999999,0.450850000000000));
#231=CARTESIAN_POINT('',(-2.220446E-016,-0.450850000000000,0.450850000000000));
#232=CARTESIAN_POINT('',(3.733800000000000,-0.450849999999999,-5.521138E-017));
#233=CARTESIAN_POINT('',(-2.220446E-016,-0.450850000000000,-5.521138E-017));
#241=(BOUNDED_SURFACE()B_SPLINE_SURFACE(1,2,((#216,#218,#220,#222,#224,#226,#228,#230,#232),(#217,#219,#221,#223,#225,#227,#229,#231,#233)),.UNSPECIFIED.,.F.,.T.,.U.)B_SPLINE_SURFACE_WITH_KNOTS((2,2),(3,2,2,2,3),(-11.445367959486369,-3.163677818641299),(0.0,0.708193523935479,1.416387047870958,2.124580571806437,2.832774095741916),.UNSPECIFIED.)GEOMETRIC_REPRESENTATION_ITEM()RATIONAL_B_SPLINE_SURFACE(((1.0,0.707106781186548,1.0,0.707106781186548,1.0,0.707106781186548,1.0,0.707106781186548,1.0),(1.0,0.707106781186548,1.0,0.707106781186548,1.0,0.707106781186548,1.0,0.707106781186548,1.0)))REPRESENTATION_ITEM('')SURFACE());
#242=CARTESIAN_POINT('',(8.281707E-017,-0.450850000000000,-5.521138E-017));
#243=VERTEX_POINT('',#242);
#244=CARTESIAN_POINT('',(0.0,3.081488E-032,0.0));
#245=DIRECTION('',(1.0,0.0,0.0));
#246=DIRECTION('',(0.0,1.0,0.0));
#247=AXIS2_PLACEMENT_3D('',#244,#245,#246);
#248=CIRCLE('',#247,0.450850000000000);
#249=EDGE_CURVE('',#243,#243,#248,.T.);
#250=ORIENTED_EDGE('',*,*,#249,.F.);
#251=EDGE_LOOP('',(#250));
#252=FACE_OUTER_BOUND('',#251,.T.);
#253=ORIENTED_EDGE('',*,*,#208,.F.);
#254=EDGE_LOOP('',(#253));
#255=FACE_BOUND('',#254,.T.);
#256=ADVANCED_FACE('',(#252,#255),#241,.F.);
#257=CARTESIAN_POINT('',(0.076200000000000,1.399725E-017,0.0));
#258=DIRECTION('',(1.0,1.836910E-016,0.0));
#259=DIRECTION('',(0.0,0.0,-1.0));
#260=AXIS2_PLACEMENT_3D('',#257,#258,#259);
#261=TOROIDAL_SURFACE('',#260,0.548987783149911,0.076200000000000);
#262=CARTESIAN_POINT('',(-4.880238E-017,0.548987783149911,0.0));
#263=VERTEX_POINT('',#262);
#264=CARTESIAN_POINT('',(5.204170E-017,-1.733337E-032,0.0));
#265=DIRECTION('',(1.0,0.0,0.0));
#266=DIRECTION('',(0.0,-1.0,0.0));
#267=AXIS2_PLACEMENT_3D('',#264,#265,#266);
#268=CIRCLE('',#267,0.548987783149911);
#269=EDGE_CURVE('',#263,#263,#268,.T.);
#270=ORIENTED_EDGE('',*,*,#269,.T.);
#271=EDGE_LOOP('',(#270));
#272=FACE_OUTER_BOUND('',#271,.T.);
#273=CARTESIAN_POINT('',(0.059058729658998,0.623234782086546,-1.526435E-016));
#274=VERTEX_POINT('',#273);
#275=CARTESIAN_POINT('',(0.059058729658997,3.469447E-017,-7.632173E-017));
#276=DIRECTION('',(-1.0,0.0,0.0));
#277=DIRECTION('',(0.0,-1.0,0.0));
#278=AXIS2_PLACEMENT_3D('',#275,#276,#277);
#279=CIRCLE('',#278,0.623234782086546);
#280=EDGE_CURVE('',#274,#274,#279,.T.);
#281=ORIENTED_EDGE('',*,*,#280,.T.);
#282=EDGE_LOOP('',(#281));
#283=FACE_BOUND('',#282,.T.);
#284=ADVANCED_FACE('',(#272,#283),#261,.T.);
#285=CARTESIAN_POINT('',(1.430253333688627,2.627246E-016,0.0));
#286=DIRECTION('',(1.0,1.836910E-016,0.0));
#287=DIRECTION('',(0.0,1.0,0.0));
#288=AXIS2_PLACEMENT_3D('',#285,#286,#287);
#289=CONICAL_SURFACE('',#288,0.939800000000000,13.000000000000012);
#290=ORIENTED_EDGE('',*,*,#191,.F.);
#291=EDGE_LOOP('',(#290));
#292=FACE_OUTER_BOUND('',#291,.T.);
#293=ORIENTED_EDGE('',*,*,#280,.F.);
#294=EDGE_LOOP('',(#293));
#295=FACE_BOUND('',#294,.T.);
#296=ADVANCED_FACE('',(#292,#295),#289,.T.);
#297=CARTESIAN_POINT('',(0.0,0.304800000000000,0.0));
#298=DIRECTION('',(-1.0,0.0,0.0));
#299=DIRECTION('',(0.0,0.0,1.0));
#300=AXIS2_PLACEMENT_3D('',#297,#298,#299);
#301=PLANE('',#300);
#302=ORIENTED_EDGE('',*,*,#269,.F.);
#303=EDGE_LOOP('',(#302));
#304=FACE_OUTER_BOUND('',#303,.T.);
#305=ORIENTED_EDGE('',*,*,#249,.T.);
#306=EDGE_LOOP('',(#305));
#307=FACE_BOUND('',#306,.T.);
#308=ADVANCED_FACE('',(#304,#307),#301,.T.);
#309=CLOSED_SHELL('',(#95,#115,#135,#155,#175,#195,#215,#256,#284,#296,#308));
#310=MANIFOLD_SOLID_BREP('',#309);
#311=COLOUR_RGB('Metall - Stahl',0.639216005802155,0.639216005802155,0.686275005340576);
#312=FILL_AREA_STYLE_COLOUR('Metall - Stahl',#311);
#313=FILL_AREA_STYLE('Metall - Stahl',(#312));
#314=SURFACE_STYLE_FILL_AREA(#313);
#315=SURFACE_SIDE_STYLE('Metall - Stahl',(#314));
#316=SURFACE_STYLE_USAGE(.BOTH.,#315);
#317=PRESENTATION_STYLE_ASSIGNMENT((#316));
#318=STYLED_ITEM('',(#317),#310);
#319=MECHANICAL_DESIGN_GEOMETRIC_PRESENTATION_REPRESENTATION('',(#318),#36);
#320=ADVANCED_BREP_SHAPE_REPRESENTATION('ABSR',(#310),#36);
#321=SHAPE_REPRESENTATION_RELATIONSHIP('SRR','None',#320,#41);
ENDSEC;
END-ISO-10303-21;
