ISO-10303-21;
HEADER;
/****************************************************************
 * Generated by software with PDE/Lib inside                    *
 * PDElib Version v51a, created Thu 12/14/2006                  *
 * International Technegroup Inc. (www.iti-oh.com)              *
 ****************************************************************/
FILE_DESCRIPTION((''),'2;1');
FILE_NAME('\\\\VICISRV2\\am\\Vault,D-CL_VICI\\VICI\\FITT\\5 Allg-Dokument\\622304-C360CPKX Cap.stp','2008-08-08T11:04:46',('Franzp'),(''),'Autodesk Inventor 2008','Autodesk Inventor 2008','');
FILE_SCHEMA(('AUTOMOTIVE_DESIGN { 1 0 10303 214 1 1 1 1 }'));
ENDSEC;
DATA;
#5=APPLICATION_CONTEXT('automotive design');
#6=APPLICATION_PROTOCOL_DEFINITION('International Standard','automotive_design',2001,#5);
#7=PRODUCT_CONTEXT('',#5,'mechanical');
#8=PRODUCT('622304','622304',$,(#7));
#9=PRODUCT_RELATED_PRODUCT_CATEGORY('part',$,(#8));
#10=PRODUCT_DEFINITION_FORMATION('',$,#8);
#11=PRODUCT_DEFINITION_CONTEXT('part definition',#5,'design');
#12=PRODUCT_DEFINITION('',$,#10,#11);
#18=(NAMED_UNIT(*)PLANE_ANGLE_UNIT()SI_UNIT($,.RADIAN.));
#19=DIMENSIONAL_EXPONENTS(0.0,0.0,0.0,0.0,0.0,0.0,0.0);
#20=PLANE_ANGLE_MEASURE_WITH_UNIT(PLANE_ANGLE_MEASURE(0.017453292500000),#18);
#24=(CONVERSION_BASED_UNIT('DEGREE',#20)NAMED_UNIT(#19)PLANE_ANGLE_UNIT());
#28=(NAMED_UNIT(*)SI_UNIT($,.STERADIAN.)SOLID_ANGLE_UNIT());
#32=(LENGTH_UNIT()NAMED_UNIT(*)SI_UNIT(.MILLI.,.METRE.));
#34=UNCERTAINTY_MEASURE_WITH_UNIT(LENGTH_MEASURE(0.010000000000000),#32,'DISTANCE_ACCURACY_VALUE','');
#36=(GEOMETRIC_REPRESENTATION_CONTEXT(3)GLOBAL_UNCERTAINTY_ASSIGNED_CONTEXT((#34))GLOBAL_UNIT_ASSIGNED_CONTEXT((#24,#28,#32))REPRESENTATION_CONTEXT('None','None'));
#37=AXIS2_PLACEMENT_3D('',#38,#39,#40);
#38=CARTESIAN_POINT('',(0.0,0.0,0.0));
#39=DIRECTION('',(0.0,0.0,1.0));
#40=DIRECTION('',(1.0,0.0,0.0));
#41=SHAPE_REPRESENTATION('',(#37),#36);
#42=PRODUCT_DEFINITION_SHAPE('','',#12);
#43=SHAPE_DEFINITION_REPRESENTATION(#42,#41);
#49=(NAMED_UNIT(*)PLANE_ANGLE_UNIT()SI_UNIT($,.RADIAN.));
#50=DIMENSIONAL_EXPONENTS(0.0,0.0,0.0,0.0,0.0,0.0,0.0);
#51=PLANE_ANGLE_MEASURE_WITH_UNIT(PLANE_ANGLE_MEASURE(0.017453292500000),#49);
#55=(CONVERSION_BASED_UNIT('DEGREE',#51)NAMED_UNIT(#50)PLANE_ANGLE_UNIT());
#59=(NAMED_UNIT(*)SI_UNIT($,.STERADIAN.)SOLID_ANGLE_UNIT());
#63=(LENGTH_UNIT()NAMED_UNIT(*)SI_UNIT(.MILLI.,.METRE.));
#65=UNCERTAINTY_MEASURE_WITH_UNIT(LENGTH_MEASURE(0.000001000000000),#63,'DISTANCE_ACCURACY_VALUE','');
#67=(GEOMETRIC_REPRESENTATION_CONTEXT(3)GLOBAL_UNCERTAINTY_ASSIGNED_CONTEXT((#65))GLOBAL_UNIT_ASSIGNED_CONTEXT((#55,#59,#63))REPRESENTATION_CONTEXT('','3D'));
#68=CARTESIAN_POINT('',(0.0,0.0,0.125000000000000));
#69=DIRECTION('',(0.0,0.0,1.0));
#70=DIRECTION('',(-1.0,0.0,0.0));
#71=AXIS2_PLACEMENT_3D('',#68,#69,#70);
#72=CONICAL_SURFACE('',#71,2.249900000000000,44.999999999999986);
#73=CARTESIAN_POINT('',(2.374900000000000,-2.908318E-016,0.250000000000000));
#74=VERTEX_POINT('',#73);
#75=CARTESIAN_POINT('',(0.0,0.0,0.250000000000000));
#76=DIRECTION('',(0.0,0.0,-1.0));
#77=DIRECTION('',(-1.0,0.0,0.0));
#78=AXIS2_PLACEMENT_3D('',#75,#76,#77);
#79=CIRCLE('',#78,2.374900000000000);
#80=EDGE_CURVE('',#74,#74,#79,.T.);
#81=ORIENTED_EDGE('',*,*,#80,.T.);
#82=EDGE_LOOP('',(#81));
#83=FACE_OUTER_BOUND('',#82,.T.);
#84=CARTESIAN_POINT('',(2.124900000000000,2.602166E-016,0.0));
#85=VERTEX_POINT('',#84);
#86=CARTESIAN_POINT('',(0.0,0.0,0.0));
#87=DIRECTION('',(0.0,0.0,1.0));
#88=DIRECTION('',(-1.0,0.0,0.0));
#89=AXIS2_PLACEMENT_3D('',#86,#87,#88);
#90=CIRCLE('',#89,2.124900000000000);
#91=EDGE_CURVE('',#85,#85,#90,.T.);
#92=ORIENTED_EDGE('',*,*,#91,.T.);
#93=EDGE_LOOP('',(#92));
#94=FACE_BOUND('',#93,.T.);
#95=ADVANCED_FACE('',(#83,#94),#72,.T.);
#96=CARTESIAN_POINT('',(0.0,0.0,0.0));
#97=DIRECTION('',(0.0,0.0,1.0));
#98=DIRECTION('',(-1.0,0.0,0.0));
#99=AXIS2_PLACEMENT_3D('',#96,#97,#98);
#100=CYLINDRICAL_SURFACE('',#99,2.374900000000000);
#101=CARTESIAN_POINT('',(2.374900000000000,2.908318E-016,5.591999999999999));
#102=VERTEX_POINT('',#101);
#103=CARTESIAN_POINT('',(0.0,0.0,5.591999999999999));
#104=DIRECTION('',(0.0,0.0,1.0));
#105=DIRECTION('',(-1.0,0.0,0.0));
#106=AXIS2_PLACEMENT_3D('',#103,#104,#105);
#107=CIRCLE('',#106,2.374900000000000);
#108=EDGE_CURVE('',#102,#102,#107,.T.);
#109=ORIENTED_EDGE('',*,*,#108,.F.);
#110=EDGE_LOOP('',(#109));
#111=FACE_OUTER_BOUND('',#110,.T.);
#112=ORIENTED_EDGE('',*,*,#80,.F.);
#113=EDGE_LOOP('',(#112));
#114=FACE_BOUND('',#113,.T.);
#115=ADVANCED_FACE('',(#111,#114),#100,.T.);
#116=CARTESIAN_POINT('',(0.0,0.0,0.0));
#117=DIRECTION('',(0.0,0.0,-1.0));
#118=DIRECTION('',(-1.0,0.0,0.0));
#119=AXIS2_PLACEMENT_3D('',#116,#117,#118);
#120=PLANE('',#119);
#121=ORIENTED_EDGE('',*,*,#91,.F.);
#122=EDGE_LOOP('',(#121));
#123=FACE_OUTER_BOUND('',#122,.T.);
#124=ADVANCED_FACE('',(#123),#120,.T.);
#125=CARTESIAN_POINT('',(0.0,0.0,5.716999999999999));
#126=DIRECTION('',(0.0,0.0,-1.0));
#127=DIRECTION('',(-1.0,0.0,0.0));
#128=AXIS2_PLACEMENT_3D('',#125,#126,#127);
#129=CONICAL_SURFACE('',#128,2.249900000000000,44.999999999999979);
#130=CARTESIAN_POINT('',(2.124900000000000,-2.602166E-016,5.842000000000000));
#131=VERTEX_POINT('',#130);
#132=CARTESIAN_POINT('',(0.0,0.0,5.842000000000000));
#133=DIRECTION('',(0.0,0.0,-1.0));
#134=DIRECTION('',(-1.0,0.0,0.0));
#135=AXIS2_PLACEMENT_3D('',#132,#133,#134);
#136=CIRCLE('',#135,2.124900000000000);
#137=EDGE_CURVE('',#131,#131,#136,.T.);
#138=ORIENTED_EDGE('',*,*,#137,.T.);
#139=EDGE_LOOP('',(#138));
#140=FACE_OUTER_BOUND('',#139,.T.);
#141=ORIENTED_EDGE('',*,*,#108,.T.);
#142=EDGE_LOOP('',(#141));
#143=FACE_BOUND('',#142,.T.);
#144=ADVANCED_FACE('',(#140,#143),#129,.T.);
#145=CARTESIAN_POINT('',(0.0,0.0,5.842000000000000));
#146=DIRECTION('',(0.0,0.0,-1.0));
#147=DIRECTION('',(-1.0,0.0,0.0));
#148=AXIS2_PLACEMENT_3D('',#145,#146,#147);
#149=PLANE('',#148);
#150=ORIENTED_EDGE('',*,*,#137,.F.);
#151=EDGE_LOOP('',(#150));
#152=FACE_OUTER_BOUND('',#151,.T.);
#153=CARTESIAN_POINT('',(1.143000000000000,0.0,5.842000000000000));
#154=VERTEX_POINT('',#153);
#155=CARTESIAN_POINT('',(0.0,0.0,5.842000000000000));
#156=DIRECTION('',(0.0,0.0,-1.0));
#157=DIRECTION('',(1.0,0.0,0.0));
#158=AXIS2_PLACEMENT_3D('',#155,#156,#157);
#159=CIRCLE('',#158,1.143000000000001);
#160=EDGE_CURVE('',#154,#154,#159,.T.);
#161=ORIENTED_EDGE('',*,*,#160,.T.);
#162=EDGE_LOOP('',(#161));
#163=FACE_BOUND('',#162,.T.);
#164=ADVANCED_FACE('',(#152,#163),#149,.F.);
#165=CARTESIAN_POINT('',(0.0,0.0,3.074999999999999));
#166=DIRECTION('',(0.0,0.0,1.0));
#167=DIRECTION('',(-1.0,0.0,0.0));
#168=AXIS2_PLACEMENT_3D('',#165,#166,#167);
#169=CONICAL_SURFACE('',#168,0.847500000000000,19.999999999999996);
#170=CARTESIAN_POINT('',(0.134703841816037,0.134703841816037,1.269907335418312));
#171=VERTEX_POINT('',#170);
#172=CARTESIAN_POINT('',(0.134703841816037,0.134703841816037,1.269907335418312));
#173=CARTESIAN_POINT('',(0.117163404699563,0.152244278932511,1.269907335418312));
#174=CARTESIAN_POINT('',(0.096364626312029,0.166190982499704,1.269907335418312));
#175=CARTESIAN_POINT('',(0.050591788732431,0.185326886288329,1.269907335418312));
#176=CARTESIAN_POINT('',(0.026055342815751,0.190333136839668,1.269907335418312));
#177=CARTESIAN_POINT('',(-0.023555437338678,0.190658661592537,1.269907335418312));
#178=CARTESIAN_POINT('',(-0.048155465478187,0.185974823600005,1.269907335418312));
#179=CARTESIAN_POINT('',(-0.094175474243769,0.167441225268555,1.269907335418312));
#180=CARTESIAN_POINT('',(-0.115155478503201,0.153768656231277,1.269907335418312));
#181=CARTESIAN_POINT('',(-0.150693683715935,0.119151154239460,1.269907335418312));
#182=CARTESIAN_POINT('',(-0.164912120057585,0.098537183471960,1.269907335418312));
#183=CARTESIAN_POINT('',(-0.184647033918124,0.053019399597820,1.269907335418312));
#184=CARTESIAN_POINT('',(-0.189974834904147,0.028550761314126,1.269907335418312));
#185=CARTESIAN_POINT('',(-0.190951353104286,-0.021051475390489,1.269907335418312));
#186=CARTESIAN_POINT('',(-0.186590734272165,-0.045710849393206,1.269907335418312));
#187=CARTESIAN_POINT('',(-0.168662633060401,-0.091970104260060,1.269907335418312));
#188=CARTESIAN_POINT('',(-0.155266553099913,-0.113127721434429,1.269907335418312));
#189=CARTESIAN_POINT('',(-0.121118384813451,-0.149117137608844,1.269907335418312));
#190=CARTESIAN_POINT('',(-0.100692771588484,-0.163604858174516,1.269907335418312));
#191=CARTESIAN_POINT('',(-0.055437880016595,-0.183935383566457,1.269907335418312));
#192=CARTESIAN_POINT('',(-0.031041263098921,-0.189583817488987,1.269907335418312));
#193=CARTESIAN_POINT('',(0.018543888177328,-0.191211160970642,1.269907335418312));
#194=CARTESIAN_POINT('',(0.043258361463708,-0.187174512239111,1.269907335418312));
#195=CARTESIAN_POINT('',(0.089748896146660,-0.169854995537164,1.269907335418312));
#196=CARTESIAN_POINT('',(0.111080482692365,-0.156737711586284,1.269907335418312));
#197=CARTESIAN_POINT('',(0.147514912107522,-0.123064757645655,1.269907335418312));
#198=CARTESIAN_POINT('',(0.162269421973468,-0.102831019448757,1.269907335418312));
#199=CARTESIAN_POINT('',(0.183192057786310,-0.057846813503348,1.269907335418312));
#200=CARTESIAN_POINT('',(0.189160151931119,-0.033526419281962,1.269907335418312));
#201=CARTESIAN_POINT('',(0.191438040450212,0.016033107529645,1.269907335418312));
#202=CARTESIAN_POINT('',(0.187726056968707,0.040798424031518,1.269907335418312));
#203=CARTESIAN_POINT('',(0.174642132652769,0.077379808811406,1.269907335418312));
#204=CARTESIAN_POINT('',(0.168464163622346,0.090040740135899,1.269907335418312));
#205=CARTESIAN_POINT('',(0.153437651835397,0.113773442896120,1.269907335418312));
#206=CARTESIAN_POINT('',(0.144635088192930,0.124772595439145,1.269907335418312));
#207=CARTESIAN_POINT('',(0.134703841816037,0.134703841816037,1.269907335418312));
#208=B_SPLINE_CURVE_WITH_KNOTS('',3,(#172,#173,#174,#175,#176,#177,#178,#179,#180,#181,#182,#183,#184,#185,#186,#187,#188,#189,#190,#191,#192,#193,#194,#195,#196,#197,#198,#199,#200,#201,#202,#203,#204,#205,#206,#207),.UNSPECIFIED.,.T.,.U.,(4,2,2,2,2,2,2,2,2,2,2,2,2,2,2,2,2,4),(0.0,0.007441777218021,0.014883554436042,0.022325331654063,0.029767108872084,0.037208886090105,0.044650663308126,0.052092440526147,0.059534217744168,0.066975994962189,0.074417772180210,0.081859549398231,0.089301326616252,0.096743103834273,0.104184881052294,0.111626658270315,0.115840129265556,0.120053600260797),.UNSPECIFIED.);
#209=EDGE_CURVE('',#171,#171,#208,.T.);
#210=ORIENTED_EDGE('',*,*,#209,.F.);
#211=EDGE_LOOP('',(#210));
#212=FACE_OUTER_BOUND('',#211,.T.);
#213=CARTESIAN_POINT('',(0.847500000000000,1.037854E-016,3.074999999999999));
#214=VERTEX_POINT('',#213);
#215=CARTESIAN_POINT('',(0.0,0.0,3.074999999999999));
#216=DIRECTION('',(0.0,0.0,-1.0));
#217=DIRECTION('',(-1.0,0.0,0.0));
#218=AXIS2_PLACEMENT_3D('',#215,#216,#217);
#219=CIRCLE('',#218,0.847500000000000);
#220=EDGE_CURVE('',#214,#214,#219,.T.);
#221=ORIENTED_EDGE('',*,*,#220,.F.);
#222=EDGE_LOOP('',(#221));
#223=FACE_BOUND('',#222,.T.);
#224=ADVANCED_FACE('',(#212,#223),#169,.F.);
#225=CARTESIAN_POINT('',(0.0,0.0,3.074999999999999));
#226=DIRECTION('',(0.0,0.0,-1.0));
#227=DIRECTION('',(-1.0,0.0,0.0));
#228=AXIS2_PLACEMENT_3D('',#225,#226,#227);
#229=PLANE('',#228);
#230=ORIENTED_EDGE('',*,*,#220,.T.);
#231=EDGE_LOOP('',(#230));
#232=FACE_OUTER_BOUND('',#231,.T.);
#233=CARTESIAN_POINT('',(0.847000000000000,0.0,3.074999999999999));
#234=VERTEX_POINT('',#233);
#235=CARTESIAN_POINT('',(0.0,0.0,3.074999999999999));
#236=DIRECTION('',(0.0,0.0,1.0));
#237=DIRECTION('',(1.0,0.0,0.0));
#238=AXIS2_PLACEMENT_3D('',#235,#236,#237);
#239=CIRCLE('',#238,0.847000000000000);
#240=EDGE_CURVE('',#234,#234,#239,.T.);
#241=ORIENTED_EDGE('',*,*,#240,.T.);
#242=EDGE_LOOP('',(#241));
#243=FACE_BOUND('',#242,.T.);
#244=ADVANCED_FACE('',(#232,#243),#229,.T.);
#245=CARTESIAN_POINT('',(-1.143000000000001,-1.399725E-016,5.842000000000000));
#246=CARTESIAN_POINT('',(-0.847000000000000,-1.037242E-016,5.545999999999999));
#247=CARTESIAN_POINT('',(-1.143000000000000,-1.143000000000001,5.841999999999999));
#248=CARTESIAN_POINT('',(-0.847000000000000,-0.847000000000000,5.545999999999999));
#249=CARTESIAN_POINT('',(1.399725E-016,-1.143000000000001,5.842000000000000));
#250=CARTESIAN_POINT('',(1.037242E-016,-0.847000000000000,5.545999999999999));
#251=CARTESIAN_POINT('',(1.143000000000001,-1.143000000000000,5.841999999999999));
#252=CARTESIAN_POINT('',(0.847000000000000,-0.847000000000000,5.545999999999999));
#253=CARTESIAN_POINT('',(1.143000000000001,1.399725E-016,5.842000000000000));
#254=CARTESIAN_POINT('',(0.847000000000000,1.037242E-016,5.545999999999999));
#255=CARTESIAN_POINT('',(1.143000000000000,1.143000000000001,5.841999999999999));
#256=CARTESIAN_POINT('',(0.847000000000000,0.847000000000000,5.545999999999999));
#257=CARTESIAN_POINT('',(-1.399725E-016,1.143000000000001,5.842000000000000));
#258=CARTESIAN_POINT('',(-1.037242E-016,0.847000000000000,5.545999999999999));
#259=CARTESIAN_POINT('',(-1.143000000000001,1.143000000000000,5.841999999999999));
#260=CARTESIAN_POINT('',(-0.847000000000000,0.847000000000000,5.545999999999999));
#261=CARTESIAN_POINT('',(-1.143000000000001,-1.399725E-016,5.842000000000000));
#262=CARTESIAN_POINT('',(-0.847000000000000,-1.037242E-016,5.545999999999999));
#270=(BOUNDED_SURFACE()B_SPLINE_SURFACE(1,2,((#245,#247,#249,#251,#253,#255,#257,#259,#261),(#246,#248,#250,#252,#254,#256,#258,#260,#262)),.UNSPECIFIED.,.F.,.T.,.U.)B_SPLINE_SURFACE_WITH_KNOTS((2,2),(3,2,2,2,3),(-0.210355384151979,0.210355384151977),(0.0,1.562942345160922,3.125884690321845,4.688827035482767,6.251769380643689),.UNSPECIFIED.)GEOMETRIC_REPRESENTATION_ITEM()RATIONAL_B_SPLINE_SURFACE(((1.0,0.707106781186548,1.0,0.707106781186548,1.0,0.707106781186548,1.0,0.707106781186548,1.0),(1.0,0.707106781186548,1.0,0.707106781186548,1.0,0.707106781186548,1.0,0.707106781186548,1.0)))REPRESENTATION_ITEM('')SURFACE());
#271=ORIENTED_EDGE('',*,*,#160,.F.);
#272=EDGE_LOOP('',(#271));
#273=FACE_OUTER_BOUND('',#272,.T.);
#274=CARTESIAN_POINT('',(0.847000000000000,0.0,5.545999999999999));
#275=VERTEX_POINT('',#274);
#276=CARTESIAN_POINT('',(0.0,0.0,5.545999999999999));
#277=DIRECTION('',(0.0,0.0,1.0));
#278=DIRECTION('',(1.0,0.0,0.0));
#279=AXIS2_PLACEMENT_3D('',#276,#277,#278);
#280=CIRCLE('',#279,0.847000000000000);
#281=EDGE_CURVE('',#275,#275,#280,.T.);
#282=ORIENTED_EDGE('',*,*,#281,.F.);
#283=EDGE_LOOP('',(#282));
#284=FACE_BOUND('',#283,.T.);
#285=ADVANCED_FACE('',(#273,#284),#270,.F.);
#286=CARTESIAN_POINT('',(-0.847000000000000,-1.037242E-016,5.545999999999999));
#287=CARTESIAN_POINT('',(-0.847000000000000,-1.037242E-016,3.074999999999999));
#288=CARTESIAN_POINT('',(-0.847000000000000,-0.847000000000000,5.545999999999999));
#289=CARTESIAN_POINT('',(-0.847000000000000,-0.847000000000000,3.074999999999999));
#290=CARTESIAN_POINT('',(1.037242E-016,-0.847000000000000,5.545999999999999));
#291=CARTESIAN_POINT('',(1.037242E-016,-0.847000000000000,3.074999999999999));
#292=CARTESIAN_POINT('',(0.847000000000000,-0.847000000000000,5.545999999999999));
#293=CARTESIAN_POINT('',(0.847000000000000,-0.847000000000000,3.074999999999999));
#294=CARTESIAN_POINT('',(0.847000000000000,1.037242E-016,5.545999999999999));
#295=CARTESIAN_POINT('',(0.847000000000000,1.037242E-016,3.074999999999999));
#296=CARTESIAN_POINT('',(0.847000000000000,0.847000000000000,5.545999999999999));
#297=CARTESIAN_POINT('',(0.847000000000000,0.847000000000000,3.074999999999999));
#298=CARTESIAN_POINT('',(-1.037242E-016,0.847000000000000,5.545999999999999));
#299=CARTESIAN_POINT('',(-1.037242E-016,0.847000000000000,3.074999999999999));
#300=CARTESIAN_POINT('',(-0.847000000000000,0.847000000000000,5.545999999999999));
#301=CARTESIAN_POINT('',(-0.847000000000000,0.847000000000000,3.074999999999999));
#302=CARTESIAN_POINT('',(-0.847000000000000,-1.037242E-016,5.545999999999999));
#303=CARTESIAN_POINT('',(-0.847000000000000,-1.037242E-016,3.074999999999999));
#311=(BOUNDED_SURFACE()B_SPLINE_SURFACE(1,2,((#286,#288,#290,#292,#294,#296,#298,#300,#302),(#287,#289,#291,#293,#295,#297,#299,#301,#303)),.UNSPECIFIED.,.F.,.T.,.U.)B_SPLINE_SURFACE_WITH_KNOTS((2,2),(3,2,2,2,3),(-1.283943329397874,1.633412042502952),(0.0,1.330464488795278,2.660928977590555,3.991393466385832,5.321857955181110),.UNSPECIFIED.)GEOMETRIC_REPRESENTATION_ITEM()RATIONAL_B_SPLINE_SURFACE(((1.0,0.707106781186548,1.0,0.707106781186548,1.0,0.707106781186548,1.0,0.707106781186548,1.0),(1.0,0.707106781186548,1.0,0.707106781186548,1.0,0.707106781186548,1.0,0.707106781186548,1.0)))REPRESENTATION_ITEM('')SURFACE());
#312=ORIENTED_EDGE('',*,*,#281,.T.);
#313=EDGE_LOOP('',(#312));
#314=FACE_OUTER_BOUND('',#313,.T.);
#315=ORIENTED_EDGE('',*,*,#240,.F.);
#316=EDGE_LOOP('',(#315));
#317=FACE_BOUND('',#316,.T.);
#318=ADVANCED_FACE('',(#314,#317),#311,.F.);
#319=CARTESIAN_POINT('',(-0.190500000000000,-2.332875E-017,1.269907335418313));
#320=CARTESIAN_POINT('',(-0.190500000000000,-2.332875E-017,0.762000000000000));
#321=CARTESIAN_POINT('',(-0.190500000000000,-0.190500000000000,1.269907335418313));
#322=CARTESIAN_POINT('',(-0.190500000000000,-0.190500000000000,0.762000000000000));
#323=CARTESIAN_POINT('',(2.332875E-017,-0.190500000000000,1.269907335418313));
#324=CARTESIAN_POINT('',(2.332875E-017,-0.190500000000000,0.762000000000000));
#325=CARTESIAN_POINT('',(0.190500000000000,-0.190500000000000,1.269907335418313));
#326=CARTESIAN_POINT('',(0.190500000000000,-0.190500000000000,0.762000000000000));
#327=CARTESIAN_POINT('',(0.190500000000000,2.332875E-017,1.269907335418313));
#328=CARTESIAN_POINT('',(0.190500000000000,2.332875E-017,0.762000000000000));
#329=CARTESIAN_POINT('',(0.190500000000000,0.190500000000000,1.269907335418313));
#330=CARTESIAN_POINT('',(0.190500000000000,0.190500000000000,0.762000000000000));
#331=CARTESIAN_POINT('',(-2.332875E-017,0.190500000000000,1.269907335418313));
#332=CARTESIAN_POINT('',(-2.332875E-017,0.190500000000000,0.762000000000000));
#333=CARTESIAN_POINT('',(-0.190500000000000,0.190500000000000,1.269907335418313));
#334=CARTESIAN_POINT('',(-0.190500000000000,0.190500000000000,0.762000000000000));
#335=CARTESIAN_POINT('',(-0.190500000000000,-2.332875E-017,1.269907335418313));
#336=CARTESIAN_POINT('',(-0.190500000000000,-2.332875E-017,0.762000000000000));
#344=(BOUNDED_SURFACE()B_SPLINE_SURFACE(1,2,((#319,#321,#323,#325,#327,#329,#331,#333,#335),(#320,#322,#324,#326,#328,#330,#332,#334,#336)),.UNSPECIFIED.,.F.,.T.,.U.)B_SPLINE_SURFACE_WITH_KNOTS((2,2),(3,2,2,2,3),(10.667153094916992,13.333333333333334),(0.0,0.299236700254428,0.598473400508856,0.897710100763283,1.196946801017711),.UNSPECIFIED.)GEOMETRIC_REPRESENTATION_ITEM()RATIONAL_B_SPLINE_SURFACE(((1.0,0.707106781186548,1.0,0.707106781186548,1.0,0.707106781186548,1.0,0.707106781186548,1.0),(1.0,0.707106781186548,1.0,0.707106781186548,1.0,0.707106781186548,1.0,0.707106781186548,1.0)))REPRESENTATION_ITEM('')SURFACE());
#345=ORIENTED_EDGE('',*,*,#209,.T.);
#346=EDGE_LOOP('',(#345));
#347=FACE_OUTER_BOUND('',#346,.T.);
#348=CARTESIAN_POINT('',(0.190500000000000,0.0,0.761999999999999));
#349=VERTEX_POINT('',#348);
#350=CARTESIAN_POINT('',(0.0,0.0,0.761999999999999));
#351=DIRECTION('',(0.0,0.0,1.0));
#352=DIRECTION('',(1.0,0.0,0.0));
#353=AXIS2_PLACEMENT_3D('',#350,#351,#352);
#354=CIRCLE('',#353,0.190500000000000);
#355=EDGE_CURVE('',#349,#349,#354,.T.);
#356=ORIENTED_EDGE('',*,*,#355,.F.);
#357=EDGE_LOOP('',(#356));
#358=FACE_BOUND('',#357,.T.);
#359=ADVANCED_FACE('',(#347,#358),#344,.F.);
#360=CARTESIAN_POINT('',(-0.190500000000000,0.190500000000000,0.761999999999999));
#361=CARTESIAN_POINT('',(0.190500000000000,0.190500000000000,0.761999999999999));
#362=CARTESIAN_POINT('',(-0.190500000000000,-0.190500000000000,0.761999999999999));
#363=CARTESIAN_POINT('',(0.190500000000000,-0.190500000000000,0.761999999999999));
#364=B_SPLINE_SURFACE_WITH_KNOTS('',1,1,((#360,#362),(#361,#363)),.UNSPECIFIED.,.F.,.F.,.U.,(2,2),(2,2),(0.0,0.381000000000000),(0.0,0.381000000000000),.UNSPECIFIED.);
#365=ORIENTED_EDGE('',*,*,#355,.T.);
#366=EDGE_LOOP('',(#365));
#367=FACE_OUTER_BOUND('',#366,.T.);
#368=ADVANCED_FACE('',(#367),#364,.F.);
#369=CLOSED_SHELL('',(#95,#115,#124,#144,#164,#224,#244,#285,#318,#359,#368));
#370=MANIFOLD_SOLID_BREP('',#369);
#371=COLOUR_RGB('',0.776470601558685,0.741176486015320,0.647058844566345);
#372=DRAUGHTING_PRE_DEFINED_CURVE_FONT('continuous');
#373=CURVE_STYLE('',#372,POSITIVE_LENGTH_MEASURE(0.100000000000000),#371);
#374=FILL_AREA_STYLE_COLOUR('',#371);
#375=FILL_AREA_STYLE('',(#374));
#376=SURFACE_STYLE_FILL_AREA(#375);
#377=SURFACE_SIDE_STYLE('',(#376));
#378=SURFACE_STYLE_USAGE(.BOTH.,#377);
#379=PRESENTATION_STYLE_ASSIGNMENT((#373,#378));
#380=STYLED_ITEM('',(#379),#115);
#381=MECHANICAL_DESIGN_GEOMETRIC_PRESENTATION_REPRESENTATION('',(#380,#389),#67);
#382=COLOUR_RGB('Beige (hell)',0.780391991138458,0.745097994804382,0.647059023380280);
#383=FILL_AREA_STYLE_COLOUR('Beige (hell)',#382);
#384=FILL_AREA_STYLE('Beige (hell)',(#383));
#385=SURFACE_STYLE_FILL_AREA(#384);
#386=SURFACE_SIDE_STYLE('Beige (hell)',(#385));
#387=SURFACE_STYLE_USAGE(.BOTH.,#386);
#388=PRESENTATION_STYLE_ASSIGNMENT((#387));
#389=STYLED_ITEM('',(#388),#370);
#390=ADVANCED_BREP_SHAPE_REPRESENTATION('ABSR',(#370),#36);
#391=SHAPE_REPRESENTATION_RELATIONSHIP('SRR','None',#390,#41);
ENDSEC;
END-ISO-10303-21;
