ISO-10303-21;
HEADER;
/* Generated by software containing ST-Developer
 * from STEP Tools, Inc. (www.steptools.com) 
 */

FILE_DESCRIPTION(
/* description */ ('Pipe adapter, female 1/4-28 to female NPT'),
/* implementation_level */ '2;1');

FILE_NAME(
/* name */ 
'C:\\BC-WorkSpace\\FRANZP\\M-Vicisrv126,D-CL_VICI\\Tech-Support\\Dimen
sion Fittings\\8 CAD-Format\\312786-CFPA2PK Pipe adapter female to fem
ale NPT.stp',
/* time_stamp */ '2016-05-04T15:30:26+02:00',
/* author */ ('Franzp'),
/* organization */ (''),
/* preprocessor_version */ 'ST-DEVELOPER v15.6',
/* originating_system */ 'Autodesk Inventor 2015',
/* authorisation */ '');

FILE_SCHEMA (('AUTOMOTIVE_DESIGN { 1 0 10303 214 3 1 1 }'));
ENDSEC;

DATA;
#10=MECHANICAL_DESIGN_GEOMETRIC_PRESENTATION_REPRESENTATION('',(#21,#22),
#264);
#11=SHAPE_REPRESENTATION_RELATIONSHIP('SRR','None',#273,#12);
#12=ADVANCED_BREP_SHAPE_REPRESENTATION($,(#13),#263);
#13=MANIFOLD_SOLID_BREP('Volumenk\X\F6rper1',#148);
#14=PLANE('',#155);
#15=PLANE('',#159);
#16=PLANE('',#171);
#17=CYLINDRICAL_SURFACE('',#153,7.9375);
#18=CYLINDRICAL_SURFACE('',#166,4.283);
#19=CYLINDRICAL_SURFACE('',#169,2.6795);
#20=CYLINDRICAL_SURFACE('',#173,0.762);
#21=STYLED_ITEM('',(#283),#137);
#22=STYLED_ITEM('',(#282),#13);
#23=FACE_BOUND('',#48,.T.);
#24=FACE_BOUND('',#50,.T.);
#25=FACE_BOUND('',#52,.T.);
#26=FACE_BOUND('',#54,.T.);
#27=FACE_BOUND('',#56,.T.);
#28=FACE_BOUND('',#58,.T.);
#29=FACE_BOUND('',#60,.T.);
#30=FACE_BOUND('',#62,.T.);
#31=FACE_BOUND('',#64,.T.);
#32=FACE_BOUND('',#66,.T.);
#33=FACE_BOUND('',#68,.T.);
#34=FACE_BOUND('',#70,.T.);
#35=FACE_OUTER_BOUND('',#47,.T.);
#36=FACE_OUTER_BOUND('',#49,.T.);
#37=FACE_OUTER_BOUND('',#51,.T.);
#38=FACE_OUTER_BOUND('',#53,.T.);
#39=FACE_OUTER_BOUND('',#55,.T.);
#40=FACE_OUTER_BOUND('',#57,.T.);
#41=FACE_OUTER_BOUND('',#59,.T.);
#42=FACE_OUTER_BOUND('',#61,.T.);
#43=FACE_OUTER_BOUND('',#63,.T.);
#44=FACE_OUTER_BOUND('',#65,.T.);
#45=FACE_OUTER_BOUND('',#67,.T.);
#46=FACE_OUTER_BOUND('',#69,.T.);
#47=EDGE_LOOP('',(#107));
#48=EDGE_LOOP('',(#108));
#49=EDGE_LOOP('',(#109));
#50=EDGE_LOOP('',(#110));
#51=EDGE_LOOP('',(#111));
#52=EDGE_LOOP('',(#112));
#53=EDGE_LOOP('',(#113));
#54=EDGE_LOOP('',(#114));
#55=EDGE_LOOP('',(#115));
#56=EDGE_LOOP('',(#116));
#57=EDGE_LOOP('',(#117));
#58=EDGE_LOOP('',(#118));
#59=EDGE_LOOP('',(#119));
#60=EDGE_LOOP('',(#120));
#61=EDGE_LOOP('',(#121));
#62=EDGE_LOOP('',(#122));
#63=EDGE_LOOP('',(#123));
#64=EDGE_LOOP('',(#124));
#65=EDGE_LOOP('',(#125));
#66=EDGE_LOOP('',(#126));
#67=EDGE_LOOP('',(#127));
#68=EDGE_LOOP('',(#128));
#69=EDGE_LOOP('',(#129));
#70=EDGE_LOOP('',(#130));
#71=CIRCLE('',#151,7.5565);
#72=CIRCLE('',#152,7.9375);
#73=CIRCLE('',#154,7.9375);
#74=CIRCLE('',#156,5.);
#75=CIRCLE('',#158,7.5565);
#76=CIRCLE('',#160,3.3);
#77=CIRCLE('',#162,0.762);
#78=CIRCLE('',#163,4.283);
#79=CIRCLE('',#165,4.283);
#80=CIRCLE('',#168,2.6795);
#81=CIRCLE('',#170,2.6795);
#82=CIRCLE('',#172,0.762);
#83=VERTEX_POINT('',#226);
#84=VERTEX_POINT('',#228);
#85=VERTEX_POINT('',#231);
#86=VERTEX_POINT('',#234);
#87=VERTEX_POINT('',#237);
#88=VERTEX_POINT('',#240);
#89=VERTEX_POINT('',#243);
#90=VERTEX_POINT('',#245);
#91=VERTEX_POINT('',#248);
#92=VERTEX_POINT('',#252);
#93=VERTEX_POINT('',#255);
#94=VERTEX_POINT('',#258);
#95=EDGE_CURVE('',#83,#83,#71,.T.);
#96=EDGE_CURVE('',#84,#84,#72,.T.);
#97=EDGE_CURVE('',#85,#85,#73,.T.);
#98=EDGE_CURVE('',#86,#86,#74,.T.);
#99=EDGE_CURVE('',#87,#87,#75,.T.);
#100=EDGE_CURVE('',#88,#88,#76,.T.);
#101=EDGE_CURVE('',#89,#89,#77,.T.);
#102=EDGE_CURVE('',#90,#90,#78,.T.);
#103=EDGE_CURVE('',#91,#91,#79,.T.);
#104=EDGE_CURVE('',#92,#92,#80,.T.);
#105=EDGE_CURVE('',#93,#93,#81,.T.);
#106=EDGE_CURVE('',#94,#94,#82,.T.);
#107=ORIENTED_EDGE('',*,*,#95,.T.);
#108=ORIENTED_EDGE('',*,*,#96,.T.);
#109=ORIENTED_EDGE('',*,*,#97,.F.);
#110=ORIENTED_EDGE('',*,*,#96,.F.);
#111=ORIENTED_EDGE('',*,*,#95,.F.);
#112=ORIENTED_EDGE('',*,*,#98,.T.);
#113=ORIENTED_EDGE('',*,*,#97,.T.);
#114=ORIENTED_EDGE('',*,*,#99,.T.);
#115=ORIENTED_EDGE('',*,*,#99,.F.);
#116=ORIENTED_EDGE('',*,*,#100,.T.);
#117=ORIENTED_EDGE('',*,*,#101,.F.);
#118=ORIENTED_EDGE('',*,*,#102,.T.);
#119=ORIENTED_EDGE('',*,*,#98,.F.);
#120=ORIENTED_EDGE('',*,*,#103,.F.);
#121=ORIENTED_EDGE('',*,*,#103,.T.);
#122=ORIENTED_EDGE('',*,*,#102,.F.);
#123=ORIENTED_EDGE('',*,*,#100,.F.);
#124=ORIENTED_EDGE('',*,*,#104,.F.);
#125=ORIENTED_EDGE('',*,*,#104,.T.);
#126=ORIENTED_EDGE('',*,*,#105,.F.);
#127=ORIENTED_EDGE('',*,*,#105,.T.);
#128=ORIENTED_EDGE('',*,*,#106,.F.);
#129=ORIENTED_EDGE('',*,*,#101,.T.);
#130=ORIENTED_EDGE('',*,*,#106,.T.);
#131=CONICAL_SURFACE('',#150,7.747,44.9999999999999);
#132=CONICAL_SURFACE('',#157,7.747,45.0000000000002);
#133=CONICAL_SURFACE('',#161,2.1415,75.);
#134=CONICAL_SURFACE('',#164,4.6415,45.);
#135=CONICAL_SURFACE('',#167,2.98975,45.);
#136=ADVANCED_FACE('',(#35,#23),#131,.T.);
#137=ADVANCED_FACE('',(#36,#24),#17,.T.);
#138=ADVANCED_FACE('',(#37,#25),#14,.T.);
#139=ADVANCED_FACE('',(#38,#26),#132,.T.);
#140=ADVANCED_FACE('',(#39,#27),#15,.T.);
#141=ADVANCED_FACE('',(#40,#28),#133,.F.);
#142=ADVANCED_FACE('',(#41,#29),#134,.F.);
#143=ADVANCED_FACE('',(#42,#30),#18,.F.);
#144=ADVANCED_FACE('',(#43,#31),#135,.F.);
#145=ADVANCED_FACE('',(#44,#32),#19,.F.);
#146=ADVANCED_FACE('',(#45,#33),#16,.T.);
#147=ADVANCED_FACE('',(#46,#34),#20,.F.);
#148=CLOSED_SHELL('',(#136,#137,#138,#139,#140,#141,#142,#143,#144,#145,
#146,#147));
#149=AXIS2_PLACEMENT_3D('placement',#224,#174,#175);
#150=AXIS2_PLACEMENT_3D('',#225,#176,#177);
#151=AXIS2_PLACEMENT_3D('',#227,#178,#179);
#152=AXIS2_PLACEMENT_3D('',#229,#180,#181);
#153=AXIS2_PLACEMENT_3D('',#230,#182,#183);
#154=AXIS2_PLACEMENT_3D('',#232,#184,#185);
#155=AXIS2_PLACEMENT_3D('',#233,#186,#187);
#156=AXIS2_PLACEMENT_3D('',#235,#188,#189);
#157=AXIS2_PLACEMENT_3D('',#236,#190,#191);
#158=AXIS2_PLACEMENT_3D('',#238,#192,#193);
#159=AXIS2_PLACEMENT_3D('',#239,#194,#195);
#160=AXIS2_PLACEMENT_3D('',#241,#196,#197);
#161=AXIS2_PLACEMENT_3D('',#242,#198,#199);
#162=AXIS2_PLACEMENT_3D('',#244,#200,#201);
#163=AXIS2_PLACEMENT_3D('',#246,#202,#203);
#164=AXIS2_PLACEMENT_3D('',#247,#204,#205);
#165=AXIS2_PLACEMENT_3D('',#249,#206,#207);
#166=AXIS2_PLACEMENT_3D('',#250,#208,#209);
#167=AXIS2_PLACEMENT_3D('',#251,#210,#211);
#168=AXIS2_PLACEMENT_3D('',#253,#212,#213);
#169=AXIS2_PLACEMENT_3D('',#254,#214,#215);
#170=AXIS2_PLACEMENT_3D('',#256,#216,#217);
#171=AXIS2_PLACEMENT_3D('',#257,#218,#219);
#172=AXIS2_PLACEMENT_3D('',#259,#220,#221);
#173=AXIS2_PLACEMENT_3D('',#260,#222,#223);
#174=DIRECTION('axis',(0.,0.,1.));
#175=DIRECTION('refdir',(1.,0.,0.));
#176=DIRECTION('center_axis',(1.,1.83697019872103E-16,0.));
#177=DIRECTION('ref_axis',(8.95899400195912E-17,-1.,0.));
#178=DIRECTION('center_axis',(1.,1.83697019872103E-16,0.));
#179=DIRECTION('ref_axis',(1.83697019872103E-16,-1.,0.));
#180=DIRECTION('center_axis',(-1.,-1.83697019872103E-16,0.));
#181=DIRECTION('ref_axis',(0.,-1.,0.));
#182=DIRECTION('center_axis',(1.,1.83697019872103E-16,0.));
#183=DIRECTION('ref_axis',(0.,1.,0.));
#184=DIRECTION('center_axis',(1.,1.83697019872103E-16,0.));
#185=DIRECTION('ref_axis',(0.,-1.,0.));
#186=DIRECTION('center_axis',(-1.,-1.83697019872103E-16,0.));
#187=DIRECTION('ref_axis',(0.,0.,1.));
#188=DIRECTION('center_axis',(1.,1.83697019872103E-16,0.));
#189=DIRECTION('ref_axis',(1.83697019872103E-16,-1.,0.));
#190=DIRECTION('center_axis',(-1.,-1.83697019872103E-16,0.));
#191=DIRECTION('ref_axis',(8.95899400195912E-17,-1.,0.));
#192=DIRECTION('center_axis',(-1.,-1.83697019872103E-16,0.));
#193=DIRECTION('ref_axis',(1.83697019872103E-16,-1.,0.));
#194=DIRECTION('center_axis',(1.,1.83697019872103E-16,0.));
#195=DIRECTION('ref_axis',(0.,0.,-1.));
#196=DIRECTION('center_axis',(-1.,-1.83697019872103E-16,0.));
#197=DIRECTION('ref_axis',(-1.83697019872103E-16,1.,0.));
#198=DIRECTION('center_axis',(-1.,-1.83697019872103E-16,0.));
#199=DIRECTION('ref_axis',(1.83697019872103E-16,-1.,0.));
#200=DIRECTION('center_axis',(-1.,-1.83697019872103E-16,0.));
#201=DIRECTION('ref_axis',(-1.83697019872103E-16,1.,0.));
#202=DIRECTION('center_axis',(-1.,-1.83697019872103E-16,0.));
#203=DIRECTION('ref_axis',(1.83697019872103E-16,-1.,0.));
#204=DIRECTION('center_axis',(-1.,-1.83697019872103E-16,0.));
#205=DIRECTION('ref_axis',(1.83697019872103E-16,-1.,0.));
#206=DIRECTION('center_axis',(-1.,-1.83697019872103E-16,0.));
#207=DIRECTION('ref_axis',(1.83697019872103E-16,-1.,0.));
#208=DIRECTION('center_axis',(-1.,-1.83697019872103E-16,0.));
#209=DIRECTION('ref_axis',(1.83697019872103E-16,-1.,0.));
#210=DIRECTION('center_axis',(1.,1.83697019872103E-16,0.));
#211=DIRECTION('ref_axis',(-1.83697019872103E-16,1.,0.));
#212=DIRECTION('center_axis',(1.,1.83697019872103E-16,0.));
#213=DIRECTION('ref_axis',(-1.83697019872103E-16,1.,0.));
#214=DIRECTION('center_axis',(1.,1.83697019872103E-16,0.));
#215=DIRECTION('ref_axis',(-1.83697019872103E-16,1.,0.));
#216=DIRECTION('center_axis',(1.,1.83697019872103E-16,0.));
#217=DIRECTION('ref_axis',(-1.83697019872103E-16,1.,0.));
#218=DIRECTION('center_axis',(1.,1.83697019872103E-16,0.));
#219=DIRECTION('ref_axis',(-1.77635683940025E-16,1.,0.));
#220=DIRECTION('center_axis',(1.,1.83697019872103E-16,0.));
#221=DIRECTION('ref_axis',(-1.83697019872103E-16,1.,0.));
#222=DIRECTION('center_axis',(1.,1.83697019872103E-16,0.));
#223=DIRECTION('ref_axis',(-1.83697019872103E-16,1.,0.));
#224=CARTESIAN_POINT('',(0.,0.,0.));
#225=CARTESIAN_POINT('Origin',(0.190500000000001,3.49942822856353E-17,0.));
#226=CARTESIAN_POINT('',(-6.24828201233751E-16,7.5565,9.25404353775698E-16));
#227=CARTESIAN_POINT('Origin',(7.63278329429795E-16,-2.31111593326468E-31,
0.));
#228=CARTESIAN_POINT('',(0.381,7.9375,-9.72063396823211E-16));
#229=CARTESIAN_POINT('Origin',(0.381,6.99885645712709E-17,0.));
#230=CARTESIAN_POINT('Origin',(9.779,1.79637315732929E-15,0.));
#231=CARTESIAN_POINT('',(19.177,7.9375,9.72063396823211E-16));
#232=CARTESIAN_POINT('Origin',(19.177,3.52275775008732E-15,0.));
#233=CARTESIAN_POINT('Origin',(0.,3.96875,0.));
#234=CARTESIAN_POINT('',(1.64753264697792E-15,-5.,0.));
#235=CARTESIAN_POINT('Origin',(7.63278329429795E-16,-3.620748295448E-31,
0.));
#236=CARTESIAN_POINT('Origin',(19.3675,3.55775203237295E-15,0.));
#237=CARTESIAN_POINT('',(19.558,7.5565,-9.25404353775697E-16));
#238=CARTESIAN_POINT('Origin',(19.558,3.59274631465859E-15,0.));
#239=CARTESIAN_POINT('Origin',(19.558,3.96875,0.));
#240=CARTESIAN_POINT('',(19.558,3.3,0.));
#241=CARTESIAN_POINT('Origin',(19.558,3.59274631465859E-15,0.));
#242=CARTESIAN_POINT('Origin',(10.4538131955913,1.92033433032978E-15,0.));
#243=CARTESIAN_POINT('',(10.82344910655,-0.761999999999998,9.33180860950283E-17));
#244=CARTESIAN_POINT('Origin',(10.82344910655,1.98823534561061E-15,0.));
#245=CARTESIAN_POINT('',(9.88,-4.283,0.));
#246=CARTESIAN_POINT('Origin',(9.88,1.81492655633638E-15,0.));
#247=CARTESIAN_POINT('Origin',(0.3585,6.58553816241485E-17,0.));
#248=CARTESIAN_POINT('',(0.717000000000001,-4.283,0.));
#249=CARTESIAN_POINT('Origin',(0.717000000000001,1.31710763248297E-16,0.));
#250=CARTESIAN_POINT('Origin',(4.94,9.07463278168188E-16,0.));
#251=CARTESIAN_POINT('Origin',(19.24775,3.53575431424327E-15,0.));
#252=CARTESIAN_POINT('',(18.9375,2.6795,0.));
#253=CARTESIAN_POINT('Origin',(18.9375,3.47876231382795E-15,0.));
#254=CARTESIAN_POINT('Origin',(15.494,2.84620162589836E-15,0.));
#255=CARTESIAN_POINT('',(11.43,2.6795,0.));
#256=CARTESIAN_POINT('Origin',(11.43,2.09965693713814E-15,0.));
#257=CARTESIAN_POINT('Origin',(11.43,2.09965693713814E-15,0.));
#258=CARTESIAN_POINT('',(11.43,-0.761999999999998,-9.33180860950283E-17));
#259=CARTESIAN_POINT('Origin',(11.43,2.09965693713814E-15,0.));
#260=CARTESIAN_POINT('Origin',(-10.2169326447601,-1.87682007907643E-15,
0.));
#261=UNCERTAINTY_MEASURE_WITH_UNIT(LENGTH_MEASURE(0.01),#265,
'DISTANCE_ACCURACY_VALUE',
'Maximum model space distance between geometric entities at asserted c
onnectivities');
#262=UNCERTAINTY_MEASURE_WITH_UNIT(LENGTH_MEASURE(1.E-6),#265,
'DISTANCE_ACCURACY_VALUE',
'Maximum model space distance between geometric entities at asserted c
onnectivities');
#263=(
GEOMETRIC_REPRESENTATION_CONTEXT(3)
GLOBAL_UNCERTAINTY_ASSIGNED_CONTEXT((#261))
GLOBAL_UNIT_ASSIGNED_CONTEXT((#265,#268,#266))
REPRESENTATION_CONTEXT('','3D')
);
#264=(
GEOMETRIC_REPRESENTATION_CONTEXT(3)
GLOBAL_UNCERTAINTY_ASSIGNED_CONTEXT((#262))
GLOBAL_UNIT_ASSIGNED_CONTEXT((#265,#268,#266))
REPRESENTATION_CONTEXT('','3D')
);
#265=(
LENGTH_UNIT()
NAMED_UNIT(*)
SI_UNIT(.MILLI.,.METRE.)
);
#266=(
NAMED_UNIT(*)
SI_UNIT($,.STERADIAN.)
SOLID_ANGLE_UNIT()
);
#267=DIMENSIONAL_EXPONENTS(0.,0.,0.,0.,0.,0.,0.);
#268=(
CONVERSION_BASED_UNIT('degree',#270)
NAMED_UNIT(#267)
PLANE_ANGLE_UNIT()
);
#269=(
NAMED_UNIT(*)
PLANE_ANGLE_UNIT()
SI_UNIT($,.RADIAN.)
);
#270=PLANE_ANGLE_MEASURE_WITH_UNIT(PLANE_ANGLE_MEASURE(0.01745329252),#269);
#271=SHAPE_DEFINITION_REPRESENTATION(#272,#273);
#272=PRODUCT_DEFINITION_SHAPE('',$,#275);
#273=SHAPE_REPRESENTATION('',(#149),#263);
#274=PRODUCT_DEFINITION_CONTEXT('part definition',#279,'design');
#275=PRODUCT_DEFINITION('312786','312786',#276,#274);
#276=PRODUCT_DEFINITION_FORMATION('',$,#281);
#277=PRODUCT_RELATED_PRODUCT_CATEGORY('312786','312786',(#281));
#278=APPLICATION_PROTOCOL_DEFINITION('international standard',
'automotive_design',2009,#279);
#279=APPLICATION_CONTEXT(
'Core Data for Automotive Mechanical Design Process');
#280=PRODUCT_CONTEXT('part definition',#279,'mechanical');
#281=PRODUCT('312786','312786',$,(#280));
#282=PRESENTATION_STYLE_ASSIGNMENT((#284));
#283=PRESENTATION_STYLE_ASSIGNMENT((#285));
#284=SURFACE_STYLE_USAGE(.BOTH.,#286);
#285=SURFACE_STYLE_USAGE(.BOTH.,#287);
#286=SURFACE_SIDE_STYLE($,(#288));
#287=SURFACE_SIDE_STYLE($,(#289));
#288=SURFACE_STYLE_FILL_AREA(#290);
#289=SURFACE_STYLE_FILL_AREA(#291);
#290=FILL_AREA_STYLE($,(#292));
#291=FILL_AREA_STYLE($,(#293));
#292=FILL_AREA_STYLE_COLOUR($,#294);
#293=FILL_AREA_STYLE_COLOUR($,#295);
#294=COLOUR_RGB('',0.858823529411765,0.823529411764706,0.705882352941177);
#295=COLOUR_RGB('',0.450980392156863,0.423529411764706,0.345098039215686);
ENDSEC;
END-ISO-10303-21;
