ISO-10303-21;
HEADER;
/* Generated by software containing ST-Developer
 * from STEP Tools, Inc. (www.steptools.com) 
 */

FILE_DESCRIPTION(
/* description */ ('Pipe adapter, female 1/4-28 to male NPT'),
/* implementation_level */ '2;1');

FILE_NAME(
/* name */ 
'C:\\BC-WorkSpace\\FRANZP\\M-Vicisrv126,D-CL_VICI\\Tech-Support\\Dimen
sion Fittings\\8 CAD-Format\\312784-CPA2PK Pipe adapter female to male
 NPT.stp',
/* time_stamp */ '2016-05-04T15:40:37+02:00',
/* author */ ('Franzp'),
/* organization */ (''),
/* preprocessor_version */ 'ST-DEVELOPER v15.6',
/* originating_system */ 'Autodesk Inventor 2015',
/* authorisation */ '');

FILE_SCHEMA (('AUTOMOTIVE_DESIGN { 1 0 10303 214 3 1 1 }'));
ENDSEC;

DATA;
#10=MECHANICAL_DESIGN_GEOMETRIC_PRESENTATION_REPRESENTATION('',(#23,#22),
#264);
#11=SHAPE_REPRESENTATION_RELATIONSHIP('SRR','None',#273,#12);
#12=ADVANCED_BREP_SHAPE_REPRESENTATION($,(#13),#263);
#13=MANIFOLD_SOLID_BREP('Volumenk\X\F6rper1',#148);
#14=PLANE('',#155);
#15=PLANE('',#159);
#16=PLANE('',#165);
#17=PLANE('',#173);
#18=CYLINDRICAL_SURFACE('',#153,7.9375);
#19=CYLINDRICAL_SURFACE('',#163,2.6795);
#20=CYLINDRICAL_SURFACE('',#167,0.762);
#21=CYLINDRICAL_SURFACE('',#172,5.1435);
#22=STYLED_ITEM('',(#283),#137);
#23=STYLED_ITEM('',(#282),#13);
#24=FACE_BOUND('',#49,.T.);
#25=FACE_BOUND('',#51,.T.);
#26=FACE_BOUND('',#53,.T.);
#27=FACE_BOUND('',#55,.T.);
#28=FACE_BOUND('',#57,.T.);
#29=FACE_BOUND('',#59,.T.);
#30=FACE_BOUND('',#61,.T.);
#31=FACE_BOUND('',#63,.T.);
#32=FACE_BOUND('',#65,.T.);
#33=FACE_BOUND('',#67,.T.);
#34=FACE_BOUND('',#69,.T.);
#35=FACE_BOUND('',#71,.T.);
#36=FACE_OUTER_BOUND('',#48,.T.);
#37=FACE_OUTER_BOUND('',#50,.T.);
#38=FACE_OUTER_BOUND('',#52,.T.);
#39=FACE_OUTER_BOUND('',#54,.T.);
#40=FACE_OUTER_BOUND('',#56,.T.);
#41=FACE_OUTER_BOUND('',#58,.T.);
#42=FACE_OUTER_BOUND('',#60,.T.);
#43=FACE_OUTER_BOUND('',#62,.T.);
#44=FACE_OUTER_BOUND('',#64,.T.);
#45=FACE_OUTER_BOUND('',#66,.T.);
#46=FACE_OUTER_BOUND('',#68,.T.);
#47=FACE_OUTER_BOUND('',#70,.T.);
#48=EDGE_LOOP('',(#108));
#49=EDGE_LOOP('',(#109));
#50=EDGE_LOOP('',(#110));
#51=EDGE_LOOP('',(#111));
#52=EDGE_LOOP('',(#112));
#53=EDGE_LOOP('',(#113));
#54=EDGE_LOOP('',(#114));
#55=EDGE_LOOP('',(#115));
#56=EDGE_LOOP('',(#116));
#57=EDGE_LOOP('',(#117));
#58=EDGE_LOOP('',(#118));
#59=EDGE_LOOP('',(#119));
#60=EDGE_LOOP('',(#120));
#61=EDGE_LOOP('',(#121));
#62=EDGE_LOOP('',(#122));
#63=EDGE_LOOP('',(#123));
#64=EDGE_LOOP('',(#124));
#65=EDGE_LOOP('',(#125));
#66=EDGE_LOOP('',(#126));
#67=EDGE_LOOP('',(#127));
#68=EDGE_LOOP('',(#128));
#69=EDGE_LOOP('',(#129));
#70=EDGE_LOOP('',(#130));
#71=EDGE_LOOP('',(#131));
#72=CIRCLE('',#151,7.3025);
#73=CIRCLE('',#152,7.9375);
#74=CIRCLE('',#154,7.9375);
#75=CIRCLE('',#156,5.1435);
#76=CIRCLE('',#158,7.3025);
#77=CIRCLE('',#160,3.3);
#78=CIRCLE('',#162,2.6795);
#79=CIRCLE('',#164,2.6795);
#80=CIRCLE('',#166,0.762);
#81=CIRCLE('',#168,0.762);
#82=CIRCLE('',#170,5.1435);
#83=CIRCLE('',#171,3.6195);
#84=VERTEX_POINT('',#226);
#85=VERTEX_POINT('',#228);
#86=VERTEX_POINT('',#231);
#87=VERTEX_POINT('',#234);
#88=VERTEX_POINT('',#237);
#89=VERTEX_POINT('',#240);
#90=VERTEX_POINT('',#243);
#91=VERTEX_POINT('',#246);
#92=VERTEX_POINT('',#249);
#93=VERTEX_POINT('',#252);
#94=VERTEX_POINT('',#255);
#95=VERTEX_POINT('',#257);
#96=EDGE_CURVE('',#84,#84,#72,.T.);
#97=EDGE_CURVE('',#85,#85,#73,.T.);
#98=EDGE_CURVE('',#86,#86,#74,.T.);
#99=EDGE_CURVE('',#87,#87,#75,.T.);
#100=EDGE_CURVE('',#88,#88,#76,.T.);
#101=EDGE_CURVE('',#89,#89,#77,.T.);
#102=EDGE_CURVE('',#90,#90,#78,.T.);
#103=EDGE_CURVE('',#91,#91,#79,.T.);
#104=EDGE_CURVE('',#92,#92,#80,.T.);
#105=EDGE_CURVE('',#93,#93,#81,.T.);
#106=EDGE_CURVE('',#94,#94,#82,.T.);
#107=EDGE_CURVE('',#95,#95,#83,.T.);
#108=ORIENTED_EDGE('',*,*,#96,.T.);
#109=ORIENTED_EDGE('',*,*,#97,.T.);
#110=ORIENTED_EDGE('',*,*,#98,.F.);
#111=ORIENTED_EDGE('',*,*,#97,.F.);
#112=ORIENTED_EDGE('',*,*,#96,.F.);
#113=ORIENTED_EDGE('',*,*,#99,.T.);
#114=ORIENTED_EDGE('',*,*,#98,.T.);
#115=ORIENTED_EDGE('',*,*,#100,.T.);
#116=ORIENTED_EDGE('',*,*,#100,.F.);
#117=ORIENTED_EDGE('',*,*,#101,.T.);
#118=ORIENTED_EDGE('',*,*,#101,.F.);
#119=ORIENTED_EDGE('',*,*,#102,.F.);
#120=ORIENTED_EDGE('',*,*,#102,.T.);
#121=ORIENTED_EDGE('',*,*,#103,.F.);
#122=ORIENTED_EDGE('',*,*,#103,.T.);
#123=ORIENTED_EDGE('',*,*,#104,.F.);
#124=ORIENTED_EDGE('',*,*,#104,.T.);
#125=ORIENTED_EDGE('',*,*,#105,.F.);
#126=ORIENTED_EDGE('',*,*,#106,.F.);
#127=ORIENTED_EDGE('',*,*,#107,.T.);
#128=ORIENTED_EDGE('',*,*,#99,.F.);
#129=ORIENTED_EDGE('',*,*,#106,.T.);
#130=ORIENTED_EDGE('',*,*,#107,.F.);
#131=ORIENTED_EDGE('',*,*,#105,.T.);
#132=CONICAL_SURFACE('',#150,7.62,44.9999999999999);
#133=CONICAL_SURFACE('',#157,7.62,45.0000000000001);
#134=CONICAL_SURFACE('',#161,2.98975,45.);
#135=CONICAL_SURFACE('',#169,4.3815,45.);
#136=ADVANCED_FACE('',(#36,#24),#132,.T.);
#137=ADVANCED_FACE('',(#37,#25),#18,.T.);
#138=ADVANCED_FACE('',(#38,#26),#14,.T.);
#139=ADVANCED_FACE('',(#39,#27),#133,.T.);
#140=ADVANCED_FACE('',(#40,#28),#15,.T.);
#141=ADVANCED_FACE('',(#41,#29),#134,.F.);
#142=ADVANCED_FACE('',(#42,#30),#19,.F.);
#143=ADVANCED_FACE('',(#43,#31),#16,.T.);
#144=ADVANCED_FACE('',(#44,#32),#20,.F.);
#145=ADVANCED_FACE('',(#45,#33),#135,.T.);
#146=ADVANCED_FACE('',(#46,#34),#21,.T.);
#147=ADVANCED_FACE('',(#47,#35),#17,.T.);
#148=CLOSED_SHELL('',(#136,#137,#138,#139,#140,#141,#142,#143,#144,#145,
#146,#147));
#149=AXIS2_PLACEMENT_3D('placement',#224,#174,#175);
#150=AXIS2_PLACEMENT_3D('',#225,#176,#177);
#151=AXIS2_PLACEMENT_3D('',#227,#178,#179);
#152=AXIS2_PLACEMENT_3D('',#229,#180,#181);
#153=AXIS2_PLACEMENT_3D('',#230,#182,#183);
#154=AXIS2_PLACEMENT_3D('',#232,#184,#185);
#155=AXIS2_PLACEMENT_3D('',#233,#186,#187);
#156=AXIS2_PLACEMENT_3D('',#235,#188,#189);
#157=AXIS2_PLACEMENT_3D('',#236,#190,#191);
#158=AXIS2_PLACEMENT_3D('',#238,#192,#193);
#159=AXIS2_PLACEMENT_3D('',#239,#194,#195);
#160=AXIS2_PLACEMENT_3D('',#241,#196,#197);
#161=AXIS2_PLACEMENT_3D('',#242,#198,#199);
#162=AXIS2_PLACEMENT_3D('',#244,#200,#201);
#163=AXIS2_PLACEMENT_3D('',#245,#202,#203);
#164=AXIS2_PLACEMENT_3D('',#247,#204,#205);
#165=AXIS2_PLACEMENT_3D('',#248,#206,#207);
#166=AXIS2_PLACEMENT_3D('',#250,#208,#209);
#167=AXIS2_PLACEMENT_3D('',#251,#210,#211);
#168=AXIS2_PLACEMENT_3D('',#253,#212,#213);
#169=AXIS2_PLACEMENT_3D('',#254,#214,#215);
#170=AXIS2_PLACEMENT_3D('',#256,#216,#217);
#171=AXIS2_PLACEMENT_3D('',#258,#218,#219);
#172=AXIS2_PLACEMENT_3D('',#259,#220,#221);
#173=AXIS2_PLACEMENT_3D('',#260,#222,#223);
#174=DIRECTION('axis',(0.,0.,1.));
#175=DIRECTION('refdir',(1.,0.,0.));
#176=DIRECTION('center_axis',(1.,1.83697019872103E-16,0.));
#177=DIRECTION('ref_axis',(8.8021488688716E-17,-1.,0.));
#178=DIRECTION('center_axis',(1.,1.83697019872103E-16,0.));
#179=DIRECTION('ref_axis',(1.83697019872103E-16,-1.,0.));
#180=DIRECTION('center_axis',(-1.,-1.83697019872103E-16,0.));
#181=DIRECTION('ref_axis',(0.,-1.,0.));
#182=DIRECTION('center_axis',(1.,1.83697019872103E-16,0.));
#183=DIRECTION('ref_axis',(0.,1.,0.));
#184=DIRECTION('center_axis',(1.,1.83697019872103E-16,0.));
#185=DIRECTION('ref_axis',(0.,-1.,0.));
#186=DIRECTION('center_axis',(-1.,-1.83697019872103E-16,0.));
#187=DIRECTION('ref_axis',(0.,0.,1.));
#188=DIRECTION('center_axis',(1.,1.83697019872103E-16,0.));
#189=DIRECTION('ref_axis',(0.,1.,0.));
#190=DIRECTION('center_axis',(-1.,-1.83697019872103E-16,0.));
#191=DIRECTION('ref_axis',(8.8021488688716E-17,-1.,0.));
#192=DIRECTION('center_axis',(-1.,-1.83697019872103E-16,0.));
#193=DIRECTION('ref_axis',(1.83697019872103E-16,-1.,0.));
#194=DIRECTION('center_axis',(1.,1.83697019872103E-16,0.));
#195=DIRECTION('ref_axis',(0.,0.,-1.));
#196=DIRECTION('center_axis',(-1.,-1.83697019872103E-16,0.));
#197=DIRECTION('ref_axis',(-1.83697019872103E-16,1.,0.));
#198=DIRECTION('center_axis',(1.,1.83697019872103E-16,0.));
#199=DIRECTION('ref_axis',(-1.83697019872103E-16,1.,0.));
#200=DIRECTION('center_axis',(1.,1.83697019872103E-16,0.));
#201=DIRECTION('ref_axis',(-1.83697019872103E-16,1.,0.));
#202=DIRECTION('center_axis',(1.,1.83697019872103E-16,0.));
#203=DIRECTION('ref_axis',(-1.83697019872103E-16,1.,0.));
#204=DIRECTION('center_axis',(1.,1.83697019872103E-16,0.));
#205=DIRECTION('ref_axis',(-1.83697019872103E-16,1.,0.));
#206=DIRECTION('center_axis',(1.,1.83697019872103E-16,0.));
#207=DIRECTION('ref_axis',(-1.77635683940025E-16,1.,0.));
#208=DIRECTION('center_axis',(1.,1.83697019872103E-16,0.));
#209=DIRECTION('ref_axis',(-1.83697019872103E-16,1.,0.));
#210=DIRECTION('center_axis',(1.,1.83697019872103E-16,0.));
#211=DIRECTION('ref_axis',(-1.83697019872103E-16,1.,0.));
#212=DIRECTION('center_axis',(1.,1.83697019872103E-16,0.));
#213=DIRECTION('ref_axis',(-1.83697019872103E-16,1.,0.));
#214=DIRECTION('center_axis',(1.,1.83697019872103E-16,0.));
#215=DIRECTION('ref_axis',(0.,1.,0.));
#216=DIRECTION('center_axis',(1.,1.83697019872103E-16,0.));
#217=DIRECTION('ref_axis',(0.,1.,0.));
#218=DIRECTION('center_axis',(1.,1.83697019872103E-16,0.));
#219=DIRECTION('ref_axis',(0.,1.,0.));
#220=DIRECTION('center_axis',(1.,1.83697019872103E-16,0.));
#221=DIRECTION('ref_axis',(0.,1.,0.));
#222=DIRECTION('center_axis',(-1.,-1.83697019872103E-16,0.));
#223=DIRECTION('ref_axis',(0.,0.,1.));
#224=CARTESIAN_POINT('',(0.,0.,0.));
#225=CARTESIAN_POINT('Origin',(11.7475,2.15798074094753E-15,0.));
#226=CARTESIAN_POINT('',(11.43,7.30250000000001,8.94298325077355E-16));
#227=CARTESIAN_POINT('Origin',(11.43,2.09965693713814E-15,0.));
#228=CARTESIAN_POINT('',(12.065,7.9375,-9.72063396823212E-16));
#229=CARTESIAN_POINT('Origin',(12.065,2.21630454475692E-15,0.));
#230=CARTESIAN_POINT('Origin',(15.875,2.91619019046964E-15,0.));
#231=CARTESIAN_POINT('',(19.685,7.9375,9.72063396823212E-16));
#232=CARTESIAN_POINT('Origin',(19.685,3.61607583618235E-15,0.));
#233=CARTESIAN_POINT('Origin',(11.43,6.5405,0.));
#234=CARTESIAN_POINT('',(11.43,5.1435,0.));
#235=CARTESIAN_POINT('Origin',(11.43,2.09965693713814E-15,0.));
#236=CARTESIAN_POINT('Origin',(20.0025,3.67439963999174E-15,0.));
#237=CARTESIAN_POINT('',(20.32,7.3025,-8.94298325077355E-16));
#238=CARTESIAN_POINT('Origin',(20.32,3.73272344380113E-15,0.));
#239=CARTESIAN_POINT('Origin',(20.32,3.96875,0.));
#240=CARTESIAN_POINT('',(20.32,3.3,0.));
#241=CARTESIAN_POINT('Origin',(20.32,3.73272344380113E-15,0.));
#242=CARTESIAN_POINT('Origin',(20.00975,3.67573144338581E-15,0.));
#243=CARTESIAN_POINT('',(19.6995,2.6795,0.));
#244=CARTESIAN_POINT('Origin',(19.6995,3.61873944297049E-15,0.));
#245=CARTESIAN_POINT('Origin',(16.256,2.98617875504091E-15,0.));
#246=CARTESIAN_POINT('',(12.192,2.6795,0.));
#247=CARTESIAN_POINT('Origin',(12.192,2.23963406628068E-15,0.));
#248=CARTESIAN_POINT('Origin',(12.192,2.23963406628068E-15,0.));
#249=CARTESIAN_POINT('',(12.192,-0.761999999999998,-9.33180860950283E-17));
#250=CARTESIAN_POINT('Origin',(12.192,2.23963406628068E-15,0.));
#251=CARTESIAN_POINT('Origin',(-9.96091230461857,-1.82978990556579E-15,
0.));
#252=CARTESIAN_POINT('',(1.39977129142542E-16,-0.762,-9.33180860950283E-17));
#253=CARTESIAN_POINT('Origin',(0.,-4.93038065763132E-31,0.));
#254=CARTESIAN_POINT('Origin',(0.762000000000001,1.39977129142543E-16,0.));
#255=CARTESIAN_POINT('',(1.524,5.1435,0.));
#256=CARTESIAN_POINT('Origin',(1.524,2.79954258285085E-16,0.));
#257=CARTESIAN_POINT('',(0.,3.6195,0.));
#258=CARTESIAN_POINT('Origin',(6.64891363427077E-16,1.22138562000253E-31,
0.));
#259=CARTESIAN_POINT('Origin',(6.477,1.18980559771161E-15,0.));
#260=CARTESIAN_POINT('Origin',(0.,1.80975,0.));
#261=UNCERTAINTY_MEASURE_WITH_UNIT(LENGTH_MEASURE(0.01),#265,
'DISTANCE_ACCURACY_VALUE',
'Maximum model space distance between geometric entities at asserted c
onnectivities');
#262=UNCERTAINTY_MEASURE_WITH_UNIT(LENGTH_MEASURE(1.E-6),#265,
'DISTANCE_ACCURACY_VALUE',
'Maximum model space distance between geometric entities at asserted c
onnectivities');
#263=(
GEOMETRIC_REPRESENTATION_CONTEXT(3)
GLOBAL_UNCERTAINTY_ASSIGNED_CONTEXT((#261))
GLOBAL_UNIT_ASSIGNED_CONTEXT((#265,#268,#266))
REPRESENTATION_CONTEXT('','3D')
);
#264=(
GEOMETRIC_REPRESENTATION_CONTEXT(3)
GLOBAL_UNCERTAINTY_ASSIGNED_CONTEXT((#262))
GLOBAL_UNIT_ASSIGNED_CONTEXT((#265,#268,#266))
REPRESENTATION_CONTEXT('','3D')
);
#265=(
LENGTH_UNIT()
NAMED_UNIT(*)
SI_UNIT(.MILLI.,.METRE.)
);
#266=(
NAMED_UNIT(*)
SI_UNIT($,.STERADIAN.)
SOLID_ANGLE_UNIT()
);
#267=DIMENSIONAL_EXPONENTS(0.,0.,0.,0.,0.,0.,0.);
#268=(
CONVERSION_BASED_UNIT('degree',#270)
NAMED_UNIT(#267)
PLANE_ANGLE_UNIT()
);
#269=(
NAMED_UNIT(*)
PLANE_ANGLE_UNIT()
SI_UNIT($,.RADIAN.)
);
#270=PLANE_ANGLE_MEASURE_WITH_UNIT(PLANE_ANGLE_MEASURE(0.01745329252),#269);
#271=SHAPE_DEFINITION_REPRESENTATION(#272,#273);
#272=PRODUCT_DEFINITION_SHAPE('',$,#275);
#273=SHAPE_REPRESENTATION('',(#149),#263);
#274=PRODUCT_DEFINITION_CONTEXT('part definition',#279,'design');
#275=PRODUCT_DEFINITION('312784','312784',#276,#274);
#276=PRODUCT_DEFINITION_FORMATION('',$,#281);
#277=PRODUCT_RELATED_PRODUCT_CATEGORY('312784','312784',(#281));
#278=APPLICATION_PROTOCOL_DEFINITION('international standard',
'automotive_design',2009,#279);
#279=APPLICATION_CONTEXT(
'Core Data for Automotive Mechanical Design Process');
#280=PRODUCT_CONTEXT('part definition',#279,'mechanical');
#281=PRODUCT('312784','312784',$,(#280));
#282=PRESENTATION_STYLE_ASSIGNMENT((#284));
#283=PRESENTATION_STYLE_ASSIGNMENT((#285));
#284=SURFACE_STYLE_USAGE(.BOTH.,#286);
#285=SURFACE_STYLE_USAGE(.BOTH.,#287);
#286=SURFACE_SIDE_STYLE($,(#288));
#287=SURFACE_SIDE_STYLE($,(#289));
#288=SURFACE_STYLE_FILL_AREA(#290);
#289=SURFACE_STYLE_FILL_AREA(#291);
#290=FILL_AREA_STYLE($,(#292));
#291=FILL_AREA_STYLE($,(#293));
#292=FILL_AREA_STYLE_COLOUR($,#294);
#293=FILL_AREA_STYLE_COLOUR($,#295);
#294=COLOUR_RGB('',0.858823529411765,0.823529411764706,0.705882352941177);
#295=COLOUR_RGB('',0.388235294117647,0.36078431372549,0.294117647058824);
ENDSEC;
END-ISO-10303-21;
