ISO-10303-21;
HEADER;
/****************************************************************
 * Generated by software with PDElib inside                    *
 * PDElib Version v51a, created Wed 11/30/2011                  *
 * ITI Transcendata (http://www.transcendata.com/)              *
 ****************************************************************/
FILE_DESCRIPTION((''),'2;1');
FILE_NAME('\\\\VICIVMCAD12\\am\\VAULT,D-CL_VICI\\VICI\\3DARCHIV\\5 Allg-Dokument\\312693.stp','2013-11-29T08:27:49',('Franzp'),(''),'Autodesk Inventor 2013','Autodesk Inventor 2013','');
FILE_SCHEMA(('AUTOMOTIVE_DESIGN { 1 0 10303 214 1 1 1 1 }'));
ENDSEC;
DATA;
#5=APPLICATION_CONTEXT('automotive design');
#6=APPLICATION_PROTOCOL_DEFINITION('International Standard','automotive_design',2001,#5);
#7=PRODUCT_CONTEXT('',#5,'mechanical');
#8=PRODUCT('312693','312693',$,(#7));
#9=PRODUCT_RELATED_PRODUCT_CATEGORY('part',$,(#8));
#10=PRODUCT_DEFINITION_FORMATION('',$,#8);
#11=PRODUCT_DEFINITION_CONTEXT('part definition',#5,'design');
#12=PRODUCT_DEFINITION('',$,#10,#11);
#18=(NAMED_UNIT(*)PLANE_ANGLE_UNIT()SI_UNIT($,.RADIAN.));
#19=DIMENSIONAL_EXPONENTS(0.0,0.0,0.0,0.0,0.0,0.0,0.0);
#20=PLANE_ANGLE_MEASURE_WITH_UNIT(PLANE_ANGLE_MEASURE(0.0174532925),#18);
#24=(CONVERSION_BASED_UNIT('DEGREE',#20)NAMED_UNIT(#19)PLANE_ANGLE_UNIT());
#28=(NAMED_UNIT(*)SI_UNIT($,.STERADIAN.)SOLID_ANGLE_UNIT());
#32=(LENGTH_UNIT()NAMED_UNIT(*)SI_UNIT(.MILLI.,.METRE.));
#34=UNCERTAINTY_MEASURE_WITH_UNIT(LENGTH_MEASURE(0.01),#32,'DISTANCE_ACCURACY_VALUE','');
#36=(GEOMETRIC_REPRESENTATION_CONTEXT(3)GLOBAL_UNCERTAINTY_ASSIGNED_CONTEXT((#34))GLOBAL_UNIT_ASSIGNED_CONTEXT((#24,#28,#32))REPRESENTATION_CONTEXT('None','None'));
#37=AXIS2_PLACEMENT_3D('',#38,#39,#40);
#38=CARTESIAN_POINT('',(0.0,0.0,0.0));
#39=DIRECTION('',(0.0,0.0,1.0));
#40=DIRECTION('',(1.0,0.0,0.0));
#41=SHAPE_REPRESENTATION('',(#37),#36);
#42=PRODUCT_DEFINITION_SHAPE('','',#12);
#43=SHAPE_DEFINITION_REPRESENTATION(#42,#41);
#49=(NAMED_UNIT(*)PLANE_ANGLE_UNIT()SI_UNIT($,.RADIAN.));
#50=DIMENSIONAL_EXPONENTS(0.0,0.0,0.0,0.0,0.0,0.0,0.0);
#51=PLANE_ANGLE_MEASURE_WITH_UNIT(PLANE_ANGLE_MEASURE(0.0174532925),#49);
#55=(CONVERSION_BASED_UNIT('DEGREE',#51)NAMED_UNIT(#50)PLANE_ANGLE_UNIT());
#59=(NAMED_UNIT(*)SI_UNIT($,.STERADIAN.)SOLID_ANGLE_UNIT());
#63=(LENGTH_UNIT()NAMED_UNIT(*)SI_UNIT(.MILLI.,.METRE.));
#65=UNCERTAINTY_MEASURE_WITH_UNIT(LENGTH_MEASURE(0.000001),#63,'DISTANCE_ACCURACY_VALUE','');
#67=(GEOMETRIC_REPRESENTATION_CONTEXT(3)GLOBAL_UNCERTAINTY_ASSIGNED_CONTEXT((#65))GLOBAL_UNIT_ASSIGNED_CONTEXT((#55,#59,#63))REPRESENTATION_CONTEXT('','3D'));
#68=CARTESIAN_POINT('',(13.995376950979201,7.493000000000006,0.0));
#69=DIRECTION('',(0.0,0.0,1.0));
#70=DIRECTION('',(-0.513809303146605,-0.857904423581089,0.0));
#71=AXIS2_PLACEMENT_3D('',#68,#69,#70);
#72=CYLINDRICAL_SURFACE('',#71,3.175);
#73=CARTESIAN_POINT('',(13.995376950979207,4.318000000000007,0.0));
#74=VERTEX_POINT('',#73);
#75=CARTESIAN_POINT('',(11.196301560783359,5.994400000000004,0.0));
#76=VERTEX_POINT('',#75);
#77=CARTESIAN_POINT('',(13.995376950979201,7.493000000000006,0.0));
#78=DIRECTION('',(0.0,0.0,-1.0));
#79=DIRECTION('',(-0.513809303146605,-0.857904423581089,0.0));
#80=AXIS2_PLACEMENT_3D('',#77,#78,#79);
#81=CIRCLE('',#80,3.175);
#82=EDGE_CURVE('',#74,#76,#81,.T.);
#83=ORIENTED_EDGE('',*,*,#82,.T.);
#84=CARTESIAN_POINT('',(11.196301560783359,5.994400000000004,3.048));
#85=VERTEX_POINT('',#84);
#86=CARTESIAN_POINT('',(11.196301560783359,5.994400000000004,0.0));
#87=DIRECTION('',(0.0,0.0,1.0));
#88=VECTOR('',#87,3.048);
#89=LINE('',#86,#88);
#90=EDGE_CURVE('',#76,#85,#89,.T.);
#91=ORIENTED_EDGE('',*,*,#90,.T.);
#92=CARTESIAN_POINT('',(13.995376950979207,4.318000000000007,3.048));
#93=VERTEX_POINT('',#92);
#94=CARTESIAN_POINT('',(13.995376950979201,7.493000000000006,3.048));
#95=DIRECTION('',(0.0,0.0,1.0));
#96=DIRECTION('',(-0.513809303146605,-0.857904423581089,0.0));
#97=AXIS2_PLACEMENT_3D('',#94,#95,#96);
#98=CIRCLE('',#97,3.175);
#99=EDGE_CURVE('',#85,#93,#98,.T.);
#100=ORIENTED_EDGE('',*,*,#99,.T.);
#101=CARTESIAN_POINT('',(13.995376950979207,4.318000000000007,3.048));
#102=DIRECTION('',(0.0,0.0,-1.0));
#103=VECTOR('',#102,3.048);
#104=LINE('',#101,#103);
#105=EDGE_CURVE('',#93,#74,#104,.T.);
#106=ORIENTED_EDGE('',*,*,#105,.T.);
#107=EDGE_LOOP('',(#83,#91,#100,#106));
#108=FACE_OUTER_BOUND('',#107,.T.);
#109=ADVANCED_FACE('',(#108),#72,.F.);
#110=CARTESIAN_POINT('',(0.0,0.0,0.0));
#111=DIRECTION('',(0.0,0.0,1.0));
#112=DIRECTION('',(-0.9404254356407,-0.34,0.0));
#113=AXIS2_PLACEMENT_3D('',#110,#111,#112);
#114=CYLINDRICAL_SURFACE('',#113,12.699999999999998);
#115=ORIENTED_EDGE('',*,*,#90,.F.);
#116=CARTESIAN_POINT('',(-11.196301560783365,5.994399999999997,0.0));
#117=VERTEX_POINT('',#116);
#118=CARTESIAN_POINT('',(0.0,0.0,0.0));
#119=DIRECTION('',(0.0,0.0,-1.0));
#120=DIRECTION('',(-0.9404254356407,-0.34,0.0));
#121=AXIS2_PLACEMENT_3D('',#118,#119,#120);
#122=CIRCLE('',#121,12.699999999999998);
#123=EDGE_CURVE('',#117,#76,#122,.T.);
#124=ORIENTED_EDGE('',*,*,#123,.F.);
#125=CARTESIAN_POINT('',(-11.196301560783365,5.994399999999997,3.048));
#126=VERTEX_POINT('',#125);
#127=CARTESIAN_POINT('',(-11.196301560783361,5.994399999999997,3.048));
#128=DIRECTION('',(0.0,0.0,-1.0));
#129=VECTOR('',#128,3.048);
#130=LINE('',#127,#129);
#131=EDGE_CURVE('',#126,#117,#130,.T.);
#132=ORIENTED_EDGE('',*,*,#131,.F.);
#133=CARTESIAN_POINT('',(0.0,0.0,3.048));
#134=DIRECTION('',(0.0,0.0,1.0));
#135=DIRECTION('',(-0.9404254356407,-0.34,0.0));
#136=AXIS2_PLACEMENT_3D('',#133,#134,#135);
#137=CIRCLE('',#136,12.699999999999998);
#138=EDGE_CURVE('',#85,#126,#137,.T.);
#139=ORIENTED_EDGE('',*,*,#138,.F.);
#140=EDGE_LOOP('',(#115,#124,#132,#139));
#141=FACE_OUTER_BOUND('',#140,.T.);
#142=ADVANCED_FACE('',(#141),#114,.T.);
#143=CARTESIAN_POINT('',(13.995376950979207,-7.492999999999999,0.0));
#144=DIRECTION('',(0.0,0.0,1.0));
#145=DIRECTION('',(-0.513809303146605,0.857904423581089,0.0));
#146=AXIS2_PLACEMENT_3D('',#143,#144,#145);
#147=CYLINDRICAL_SURFACE('',#146,3.175);
#148=CARTESIAN_POINT('',(11.196301560783366,-5.994399999999999,0.0));
#149=VERTEX_POINT('',#148);
#150=CARTESIAN_POINT('',(13.995376950979209,-4.317999999999999,0.0));
#151=VERTEX_POINT('',#150);
#152=CARTESIAN_POINT('',(13.995376950979207,-7.492999999999999,0.0));
#153=DIRECTION('',(0.0,0.0,-1.0));
#154=DIRECTION('',(-0.513809303146605,0.857904423581089,0.0));
#155=AXIS2_PLACEMENT_3D('',#152,#153,#154);
#156=CIRCLE('',#155,3.175);
#157=EDGE_CURVE('',#149,#151,#156,.T.);
#158=ORIENTED_EDGE('',*,*,#157,.T.);
#159=CARTESIAN_POINT('',(13.995376950979209,-4.317999999999999,3.048));
#160=VERTEX_POINT('',#159);
#161=CARTESIAN_POINT('',(13.995376950979209,-4.317999999999999,0.0));
#162=DIRECTION('',(0.0,0.0,1.0));
#163=VECTOR('',#162,3.048);
#164=LINE('',#161,#163);
#165=EDGE_CURVE('',#151,#160,#164,.T.);
#166=ORIENTED_EDGE('',*,*,#165,.T.);
#167=CARTESIAN_POINT('',(11.196301560783366,-5.994399999999999,3.048));
#168=VERTEX_POINT('',#167);
#169=CARTESIAN_POINT('',(13.995376950979207,-7.492999999999999,3.048));
#170=DIRECTION('',(0.0,0.0,1.0));
#171=DIRECTION('',(-0.513809303146605,0.857904423581089,0.0));
#172=AXIS2_PLACEMENT_3D('',#169,#170,#171);
#173=CIRCLE('',#172,3.175);
#174=EDGE_CURVE('',#160,#168,#173,.T.);
#175=ORIENTED_EDGE('',*,*,#174,.T.);
#176=CARTESIAN_POINT('',(11.196301560783366,-5.994399999999999,3.048));
#177=DIRECTION('',(0.0,0.0,-1.0));
#178=VECTOR('',#177,3.048);
#179=LINE('',#176,#178);
#180=EDGE_CURVE('',#168,#149,#179,.T.);
#181=ORIENTED_EDGE('',*,*,#180,.T.);
#182=EDGE_LOOP('',(#158,#166,#175,#181));
#183=FACE_OUTER_BOUND('',#182,.T.);
#184=ADVANCED_FACE('',(#183),#147,.F.);
#185=CARTESIAN_POINT('',(11.943403032636891,-4.317999999999998,0.0));
#186=DIRECTION('',(0.0,-1.0,0.0));
#187=DIRECTION('',(1.0,0.0,0.0));
#188=AXIS2_PLACEMENT_3D('',#185,#186,#187);
#189=PLANE('',#188);
#190=ORIENTED_EDGE('',*,*,#165,.F.);
#191=CARTESIAN_POINT('',(15.276468865546121,-4.317999999999999,0.0));
#192=VERTEX_POINT('',#191);
#193=CARTESIAN_POINT('',(15.276468865546121,-4.317999999999999,0.0));
#194=DIRECTION('',(-1.0,0.0,0.0));
#195=VECTOR('',#194,1.281091914566915);
#196=LINE('',#193,#195);
#197=EDGE_CURVE('',#192,#151,#196,.T.);
#198=ORIENTED_EDGE('',*,*,#197,.F.);
#199=CARTESIAN_POINT('',(15.276468865546121,-4.318,3.048));
#200=VERTEX_POINT('',#199);
#201=CARTESIAN_POINT('',(15.276468865546121,-4.317999999999999,0.0));
#202=DIRECTION('',(0.0,0.0,1.0));
#203=VECTOR('',#202,3.048);
#204=LINE('',#201,#203);
#205=EDGE_CURVE('',#192,#200,#204,.T.);
#206=ORIENTED_EDGE('',*,*,#205,.T.);
#207=CARTESIAN_POINT('',(13.995376950979207,-4.317999999999998,3.048));
#208=DIRECTION('',(1.0,0.0,0.0));
#209=VECTOR('',#208,1.281091914566915);
#210=LINE('',#207,#209);
#211=EDGE_CURVE('',#160,#200,#210,.T.);
#212=ORIENTED_EDGE('',*,*,#211,.F.);
#213=EDGE_LOOP('',(#190,#198,#206,#212));
#214=FACE_OUTER_BOUND('',#213,.T.);
#215=ADVANCED_FACE('',(#214),#189,.T.);
#216=CARTESIAN_POINT('',(-13.995376950979207,-7.492999999999999,0.0));
#217=DIRECTION('',(0.0,0.0,1.0));
#218=DIRECTION('',(0.513809303146605,0.857904423581089,0.0));
#219=AXIS2_PLACEMENT_3D('',#216,#217,#218);
#220=CYLINDRICAL_SURFACE('',#219,3.175);
#221=CARTESIAN_POINT('',(-13.995376950979207,-4.317999999999999,0.0));
#222=VERTEX_POINT('',#221);
#223=CARTESIAN_POINT('',(-11.196301560783366,-5.994399999999999,0.0));
#224=VERTEX_POINT('',#223);
#225=CARTESIAN_POINT('',(-13.995376950979207,-7.492999999999999,0.0));
#226=DIRECTION('',(0.0,0.0,-1.0));
#227=DIRECTION('',(0.513809303146605,0.857904423581089,0.0));
#228=AXIS2_PLACEMENT_3D('',#225,#226,#227);
#229=CIRCLE('',#228,3.175);
#230=EDGE_CURVE('',#222,#224,#229,.T.);
#231=ORIENTED_EDGE('',*,*,#230,.T.);
#232=CARTESIAN_POINT('',(-11.196301560783366,-5.994399999999999,3.048));
#233=VERTEX_POINT('',#232);
#234=CARTESIAN_POINT('',(-11.196301560783366,-5.994399999999999,0.0));
#235=DIRECTION('',(0.0,0.0,1.0));
#236=VECTOR('',#235,3.048);
#237=LINE('',#234,#236);
#238=EDGE_CURVE('',#224,#233,#237,.T.);
#239=ORIENTED_EDGE('',*,*,#238,.T.);
#240=CARTESIAN_POINT('',(-13.995376950979207,-4.317999999999999,3.048));
#241=VERTEX_POINT('',#240);
#242=CARTESIAN_POINT('',(-13.995376950979207,-7.492999999999999,3.048));
#243=DIRECTION('',(0.0,0.0,1.0));
#244=DIRECTION('',(0.513809303146605,0.857904423581089,0.0));
#245=AXIS2_PLACEMENT_3D('',#242,#243,#244);
#246=CIRCLE('',#245,3.175);
#247=EDGE_CURVE('',#233,#241,#246,.T.);
#248=ORIENTED_EDGE('',*,*,#247,.T.);
#249=CARTESIAN_POINT('',(-13.995376950979207,-4.317999999999999,3.048));
#250=DIRECTION('',(0.0,0.0,-1.0));
#251=VECTOR('',#250,3.048);
#252=LINE('',#249,#251);
#253=EDGE_CURVE('',#241,#222,#252,.T.);
#254=ORIENTED_EDGE('',*,*,#253,.T.);
#255=EDGE_LOOP('',(#231,#239,#248,#254));
#256=FACE_OUTER_BOUND('',#255,.T.);
#257=ADVANCED_FACE('',(#256),#220,.F.);
#258=CARTESIAN_POINT('',(0.0,0.0,0.0));
#259=DIRECTION('',(0.0,0.0,1.0));
#260=DIRECTION('',(0.9404254356407,0.34,0.0));
#261=AXIS2_PLACEMENT_3D('',#258,#259,#260);
#262=CYLINDRICAL_SURFACE('',#261,12.699999999999999);
#263=ORIENTED_EDGE('',*,*,#180,.F.);
#264=CARTESIAN_POINT('',(0.0,0.0,3.048));
#265=DIRECTION('',(0.0,0.0,1.0));
#266=DIRECTION('',(0.9404254356407,0.34,0.0));
#267=AXIS2_PLACEMENT_3D('',#264,#265,#266);
#268=CIRCLE('',#267,12.699999999999998);
#269=EDGE_CURVE('',#233,#168,#268,.T.);
#270=ORIENTED_EDGE('',*,*,#269,.F.);
#271=ORIENTED_EDGE('',*,*,#238,.F.);
#272=CARTESIAN_POINT('',(0.0,0.0,0.0));
#273=DIRECTION('',(0.0,0.0,-1.0));
#274=DIRECTION('',(0.9404254356407,0.34,0.0));
#275=AXIS2_PLACEMENT_3D('',#272,#273,#274);
#276=CIRCLE('',#275,12.699999999999998);
#277=EDGE_CURVE('',#149,#224,#276,.T.);
#278=ORIENTED_EDGE('',*,*,#277,.F.);
#279=EDGE_LOOP('',(#263,#270,#271,#278));
#280=FACE_OUTER_BOUND('',#279,.T.);
#281=ADVANCED_FACE('',(#280),#262,.T.);
#282=CARTESIAN_POINT('',(-13.995376950979207,7.492999999999999,0.0));
#283=DIRECTION('',(0.0,0.0,1.0));
#284=DIRECTION('',(0.513809303146605,-0.857904423581089,0.0));
#285=AXIS2_PLACEMENT_3D('',#282,#283,#284);
#286=CYLINDRICAL_SURFACE('',#285,3.175);
#287=CARTESIAN_POINT('',(-13.995376950979209,4.317999999999999,0.0));
#288=VERTEX_POINT('',#287);
#289=CARTESIAN_POINT('',(-13.995376950979207,7.492999999999999,0.0));
#290=DIRECTION('',(0.0,0.0,-1.0));
#291=DIRECTION('',(0.513809303146605,-0.857904423581089,0.0));
#292=AXIS2_PLACEMENT_3D('',#289,#290,#291);
#293=CIRCLE('',#292,3.175);
#294=EDGE_CURVE('',#117,#288,#293,.T.);
#295=ORIENTED_EDGE('',*,*,#294,.T.);
#296=CARTESIAN_POINT('',(-13.995376950979209,4.317999999999999,3.048));
#297=VERTEX_POINT('',#296);
#298=CARTESIAN_POINT('',(-13.995376950979209,4.317999999999999,0.0));
#299=DIRECTION('',(0.0,0.0,1.0));
#300=VECTOR('',#299,3.048);
#301=LINE('',#298,#300);
#302=EDGE_CURVE('',#288,#297,#301,.T.);
#303=ORIENTED_EDGE('',*,*,#302,.T.);
#304=CARTESIAN_POINT('',(-13.995376950979207,7.492999999999999,3.048));
#305=DIRECTION('',(0.0,0.0,1.0));
#306=DIRECTION('',(0.513809303146605,-0.857904423581089,0.0));
#307=AXIS2_PLACEMENT_3D('',#304,#305,#306);
#308=CIRCLE('',#307,3.175);
#309=EDGE_CURVE('',#297,#126,#308,.T.);
#310=ORIENTED_EDGE('',*,*,#309,.T.);
#311=ORIENTED_EDGE('',*,*,#131,.T.);
#312=EDGE_LOOP('',(#295,#303,#310,#311));
#313=FACE_OUTER_BOUND('',#312,.T.);
#314=ADVANCED_FACE('',(#313),#286,.F.);
#315=CARTESIAN_POINT('',(-11.943403032636891,4.317999999999996,0.0));
#316=DIRECTION('',(0.0,1.0,0.0));
#317=DIRECTION('',(-1.0,0.0,0.0));
#318=AXIS2_PLACEMENT_3D('',#315,#316,#317);
#319=PLANE('',#318);
#320=ORIENTED_EDGE('',*,*,#302,.F.);
#321=CARTESIAN_POINT('',(-15.276468865546121,4.318,0.0));
#322=VERTEX_POINT('',#321);
#323=CARTESIAN_POINT('',(-15.276468865546121,4.318,0.0));
#324=DIRECTION('',(1.0,0.0,0.0));
#325=VECTOR('',#324,1.281091914566915);
#326=LINE('',#323,#325);
#327=EDGE_CURVE('',#322,#288,#326,.T.);
#328=ORIENTED_EDGE('',*,*,#327,.F.);
#329=CARTESIAN_POINT('',(-15.276468865546121,4.318,3.048));
#330=VERTEX_POINT('',#329);
#331=CARTESIAN_POINT('',(-15.276468865546121,4.318,0.0));
#332=DIRECTION('',(0.0,0.0,1.0));
#333=VECTOR('',#332,3.048);
#334=LINE('',#331,#333);
#335=EDGE_CURVE('',#322,#330,#334,.T.);
#336=ORIENTED_EDGE('',*,*,#335,.T.);
#337=CARTESIAN_POINT('',(-13.995376950979207,4.317999999999999,3.048));
#338=DIRECTION('',(-1.0,0.0,0.0));
#339=VECTOR('',#338,1.281091914566915);
#340=LINE('',#337,#339);
#341=EDGE_CURVE('',#297,#330,#340,.T.);
#342=ORIENTED_EDGE('',*,*,#341,.F.);
#343=EDGE_LOOP('',(#320,#328,#336,#342));
#344=FACE_OUTER_BOUND('',#343,.T.);
#345=ADVANCED_FACE('',(#344),#319,.T.);
#346=CARTESIAN_POINT('',(0.0,0.0,0.0));
#347=DIRECTION('',(0.0,0.0,1.0));
#348=DIRECTION('',(-1.0,0.0,0.0));
#349=AXIS2_PLACEMENT_3D('',#346,#347,#348);
#350=CYLINDRICAL_SURFACE('',#349,9.550000000000001);
#351=CARTESIAN_POINT('',(9.550000000000001,1.169538E-015,3.048));
#352=VERTEX_POINT('',#351);
#353=CARTESIAN_POINT('',(0.0,0.0,3.048));
#354=DIRECTION('',(0.0,0.0,-1.0));
#355=DIRECTION('',(-1.0,0.0,0.0));
#356=AXIS2_PLACEMENT_3D('',#353,#354,#355);
#357=CIRCLE('',#356,9.550000000000001);
#358=EDGE_CURVE('',#352,#352,#357,.T.);
#359=ORIENTED_EDGE('',*,*,#358,.F.);
#360=EDGE_LOOP('',(#359));
#361=FACE_OUTER_BOUND('',#360,.T.);
#362=CARTESIAN_POINT('',(9.550000000000001,1.169538E-015,0.0));
#363=VERTEX_POINT('',#362);
#364=CARTESIAN_POINT('',(0.0,0.0,0.0));
#365=DIRECTION('',(0.0,0.0,1.0));
#366=DIRECTION('',(-1.0,0.0,0.0));
#367=AXIS2_PLACEMENT_3D('',#364,#365,#366);
#368=CIRCLE('',#367,9.550000000000001);
#369=EDGE_CURVE('',#363,#363,#368,.T.);
#370=ORIENTED_EDGE('',*,*,#369,.F.);
#371=EDGE_LOOP('',(#370));
#372=FACE_BOUND('',#371,.T.);
#373=ADVANCED_FACE('',(#361,#372),#350,.F.);
#374=CARTESIAN_POINT('',(12.699999999999999,0.0,0.0));
#375=DIRECTION('',(0.0,0.0,1.0));
#376=DIRECTION('',(-1.0,0.0,0.0));
#377=AXIS2_PLACEMENT_3D('',#374,#375,#376);
#378=CYLINDRICAL_SURFACE('',#377,1.778);
#379=CARTESIAN_POINT('',(14.478,2.177422E-016,3.048));
#380=VERTEX_POINT('',#379);
#381=CARTESIAN_POINT('',(12.699999999999999,0.0,3.048));
#382=DIRECTION('',(0.0,0.0,-1.0));
#383=DIRECTION('',(-1.0,0.0,0.0));
#384=AXIS2_PLACEMENT_3D('',#381,#382,#383);
#385=CIRCLE('',#384,1.778);
#386=EDGE_CURVE('',#380,#380,#385,.T.);
#387=ORIENTED_EDGE('',*,*,#386,.F.);
#388=EDGE_LOOP('',(#387));
#389=FACE_OUTER_BOUND('',#388,.T.);
#390=CARTESIAN_POINT('',(14.478,2.177422E-016,0.0));
#391=VERTEX_POINT('',#390);
#392=CARTESIAN_POINT('',(12.699999999999999,0.0,0.0));
#393=DIRECTION('',(0.0,0.0,1.0));
#394=DIRECTION('',(-1.0,0.0,0.0));
#395=AXIS2_PLACEMENT_3D('',#392,#393,#394);
#396=CIRCLE('',#395,1.778);
#397=EDGE_CURVE('',#391,#391,#396,.T.);
#398=ORIENTED_EDGE('',*,*,#397,.F.);
#399=EDGE_LOOP('',(#398));
#400=FACE_BOUND('',#399,.T.);
#401=ADVANCED_FACE('',(#389,#400),#378,.F.);
#402=CARTESIAN_POINT('',(-12.699999999999999,1.555301E-015,0.0));
#403=DIRECTION('',(0.0,0.0,1.0));
#404=DIRECTION('',(-1.0,0.0,0.0));
#405=AXIS2_PLACEMENT_3D('',#402,#403,#404);
#406=CYLINDRICAL_SURFACE('',#405,1.778);
#407=CARTESIAN_POINT('',(-10.922000000000001,1.773044E-015,3.048));
#408=VERTEX_POINT('',#407);
#409=CARTESIAN_POINT('',(-12.699999999999999,1.555301E-015,3.048));
#410=DIRECTION('',(0.0,0.0,-1.0));
#411=DIRECTION('',(-1.0,0.0,0.0));
#412=AXIS2_PLACEMENT_3D('',#409,#410,#411);
#413=CIRCLE('',#412,1.778);
#414=EDGE_CURVE('',#408,#408,#413,.T.);
#415=ORIENTED_EDGE('',*,*,#414,.F.);
#416=EDGE_LOOP('',(#415));
#417=FACE_OUTER_BOUND('',#416,.T.);
#418=CARTESIAN_POINT('',(-10.922000000000001,1.773044E-015,0.0));
#419=VERTEX_POINT('',#418);
#420=CARTESIAN_POINT('',(-12.699999999999999,1.555301E-015,0.0));
#421=DIRECTION('',(0.0,0.0,1.0));
#422=DIRECTION('',(-1.0,0.0,0.0));
#423=AXIS2_PLACEMENT_3D('',#420,#421,#422);
#424=CIRCLE('',#423,1.778);
#425=EDGE_CURVE('',#419,#419,#424,.T.);
#426=ORIENTED_EDGE('',*,*,#425,.F.);
#427=EDGE_LOOP('',(#426));
#428=FACE_BOUND('',#427,.T.);
#429=ADVANCED_FACE('',(#417,#428),#406,.F.);
#430=CARTESIAN_POINT('',(15.27646886554612,4.318000000000009,0.0));
#431=DIRECTION('',(0.0,1.0,0.0));
#432=DIRECTION('',(-1.0,0.0,0.0));
#433=AXIS2_PLACEMENT_3D('',#430,#431,#432);
#434=PLANE('',#433);
#435=ORIENTED_EDGE('',*,*,#105,.F.);
#436=CARTESIAN_POINT('',(15.276468865546121,4.318000000000009,3.048));
#437=VERTEX_POINT('',#436);
#438=CARTESIAN_POINT('',(15.27646886554612,4.318000000000009,3.048));
#439=DIRECTION('',(-1.0,0.0,0.0));
#440=VECTOR('',#439,1.281091914566915);
#441=LINE('',#438,#440);
#442=EDGE_CURVE('',#437,#93,#441,.T.);
#443=ORIENTED_EDGE('',*,*,#442,.F.);
#444=CARTESIAN_POINT('',(15.27646886554612,4.318000000000009,0.0));
#445=VERTEX_POINT('',#444);
#446=CARTESIAN_POINT('',(15.27646886554612,4.318000000000009,0.0));
#447=DIRECTION('',(0.0,0.0,1.0));
#448=VECTOR('',#447,3.048);
#449=LINE('',#446,#448);
#450=EDGE_CURVE('',#445,#437,#449,.T.);
#451=ORIENTED_EDGE('',*,*,#450,.F.);
#452=CARTESIAN_POINT('',(13.995376950979205,4.318000000000007,0.0));
#453=DIRECTION('',(1.0,0.0,0.0));
#454=VECTOR('',#453,1.281091914566915);
#455=LINE('',#452,#454);
#456=EDGE_CURVE('',#74,#445,#455,.T.);
#457=ORIENTED_EDGE('',*,*,#456,.F.);
#458=EDGE_LOOP('',(#435,#443,#451,#457));
#459=FACE_OUTER_BOUND('',#458,.T.);
#460=ADVANCED_FACE('',(#459),#434,.T.);
#461=CARTESIAN_POINT('',(0.0,0.0,0.0));
#462=DIRECTION('',(0.0,0.0,1.0));
#463=DIRECTION('',(-0.962297251372984,0.272,0.0));
#464=AXIS2_PLACEMENT_3D('',#461,#462,#463);
#465=CYLINDRICAL_SURFACE('',#464,15.875);
#466=CARTESIAN_POINT('',(0.0,0.0,0.0));
#467=DIRECTION('',(0.0,0.0,-1.0));
#468=DIRECTION('',(-0.962297251372984,0.272,0.0));
#469=AXIS2_PLACEMENT_3D('',#466,#467,#468);
#470=CIRCLE('',#469,15.875);
#471=EDGE_CURVE('',#445,#192,#470,.T.);
#472=ORIENTED_EDGE('',*,*,#471,.F.);
#473=ORIENTED_EDGE('',*,*,#450,.T.);
#474=CARTESIAN_POINT('',(0.0,0.0,3.048));
#475=DIRECTION('',(0.0,0.0,1.0));
#476=DIRECTION('',(-0.962297251372984,0.272,0.0));
#477=AXIS2_PLACEMENT_3D('',#474,#475,#476);
#478=CIRCLE('',#477,15.875);
#479=EDGE_CURVE('',#200,#437,#478,.T.);
#480=ORIENTED_EDGE('',*,*,#479,.F.);
#481=ORIENTED_EDGE('',*,*,#205,.F.);
#482=EDGE_LOOP('',(#472,#473,#480,#481));
#483=FACE_OUTER_BOUND('',#482,.T.);
#484=ADVANCED_FACE('',(#483),#465,.T.);
#485=CARTESIAN_POINT('',(-15.276468865546121,-4.317999999999999,0.0));
#486=DIRECTION('',(0.0,-1.0,0.0));
#487=DIRECTION('',(1.0,0.0,0.0));
#488=AXIS2_PLACEMENT_3D('',#485,#486,#487);
#489=PLANE('',#488);
#490=ORIENTED_EDGE('',*,*,#253,.F.);
#491=CARTESIAN_POINT('',(-15.276468865546121,-4.318,3.048));
#492=VERTEX_POINT('',#491);
#493=CARTESIAN_POINT('',(-15.276468865546121,-4.317999999999999,3.048));
#494=DIRECTION('',(1.0,0.0,0.0));
#495=VECTOR('',#494,1.281091914566916);
#496=LINE('',#493,#495);
#497=EDGE_CURVE('',#492,#241,#496,.T.);
#498=ORIENTED_EDGE('',*,*,#497,.F.);
#499=CARTESIAN_POINT('',(-15.276468865546121,-4.317999999999999,0.0));
#500=VERTEX_POINT('',#499);
#501=CARTESIAN_POINT('',(-15.276468865546121,-4.317999999999999,0.0));
#502=DIRECTION('',(0.0,0.0,1.0));
#503=VECTOR('',#502,3.048);
#504=LINE('',#501,#503);
#505=EDGE_CURVE('',#500,#492,#504,.T.);
#506=ORIENTED_EDGE('',*,*,#505,.F.);
#507=CARTESIAN_POINT('',(-13.995376950979205,-4.317999999999999,0.0));
#508=DIRECTION('',(-1.0,0.0,0.0));
#509=VECTOR('',#508,1.281091914566916);
#510=LINE('',#507,#509);
#511=EDGE_CURVE('',#222,#500,#510,.T.);
#512=ORIENTED_EDGE('',*,*,#511,.F.);
#513=EDGE_LOOP('',(#490,#498,#506,#512));
#514=FACE_OUTER_BOUND('',#513,.T.);
#515=ADVANCED_FACE('',(#514),#489,.T.);
#516=CARTESIAN_POINT('',(0.0,0.0,0.0));
#517=DIRECTION('',(0.0,0.0,1.0));
#518=DIRECTION('',(0.962297251372984,-0.272,0.0));
#519=AXIS2_PLACEMENT_3D('',#516,#517,#518);
#520=CYLINDRICAL_SURFACE('',#519,15.875);
#521=CARTESIAN_POINT('',(0.0,0.0,0.0));
#522=DIRECTION('',(0.0,0.0,-1.0));
#523=DIRECTION('',(0.962297251372984,-0.272,0.0));
#524=AXIS2_PLACEMENT_3D('',#521,#522,#523);
#525=CIRCLE('',#524,15.875);
#526=EDGE_CURVE('',#500,#322,#525,.T.);
#527=ORIENTED_EDGE('',*,*,#526,.F.);
#528=ORIENTED_EDGE('',*,*,#505,.T.);
#529=CARTESIAN_POINT('',(0.0,0.0,3.048));
#530=DIRECTION('',(0.0,0.0,1.0));
#531=DIRECTION('',(0.962297251372984,-0.272,0.0));
#532=AXIS2_PLACEMENT_3D('',#529,#530,#531);
#533=CIRCLE('',#532,15.875);
#534=EDGE_CURVE('',#330,#492,#533,.T.);
#535=ORIENTED_EDGE('',*,*,#534,.F.);
#536=ORIENTED_EDGE('',*,*,#335,.F.);
#537=EDGE_LOOP('',(#527,#528,#535,#536));
#538=FACE_OUTER_BOUND('',#537,.T.);
#539=ADVANCED_FACE('',(#538),#520,.T.);
#540=CARTESIAN_POINT('',(-4.557481E-016,-1.181718E-015,3.048));
#541=DIRECTION('',(0.0,0.0,1.0));
#542=DIRECTION('',(1.0,0.0,0.0));
#543=AXIS2_PLACEMENT_3D('',#540,#541,#542);
#544=PLANE('',#543);
#545=ORIENTED_EDGE('',*,*,#341,.T.);
#546=ORIENTED_EDGE('',*,*,#534,.T.);
#547=ORIENTED_EDGE('',*,*,#497,.T.);
#548=ORIENTED_EDGE('',*,*,#247,.F.);
#549=ORIENTED_EDGE('',*,*,#269,.T.);
#550=ORIENTED_EDGE('',*,*,#174,.F.);
#551=ORIENTED_EDGE('',*,*,#211,.T.);
#552=ORIENTED_EDGE('',*,*,#479,.T.);
#553=ORIENTED_EDGE('',*,*,#442,.T.);
#554=ORIENTED_EDGE('',*,*,#99,.F.);
#555=ORIENTED_EDGE('',*,*,#138,.T.);
#556=ORIENTED_EDGE('',*,*,#309,.F.);
#557=EDGE_LOOP('',(#545,#546,#547,#548,#549,#550,#551,#552,#553,#554,#555,#556));
#558=FACE_OUTER_BOUND('',#557,.T.);
#559=ORIENTED_EDGE('',*,*,#358,.T.);
#560=EDGE_LOOP('',(#559));
#561=FACE_BOUND('',#560,.T.);
#562=ORIENTED_EDGE('',*,*,#386,.T.);
#563=EDGE_LOOP('',(#562));
#564=FACE_BOUND('',#563,.T.);
#565=ORIENTED_EDGE('',*,*,#414,.T.);
#566=EDGE_LOOP('',(#565));
#567=FACE_BOUND('',#566,.T.);
#568=ADVANCED_FACE('',(#558,#561,#564,#567),#544,.T.);
#569=CARTESIAN_POINT('',(-4.557481E-016,-1.181718E-015,0.0));
#570=DIRECTION('',(0.0,0.0,1.0));
#571=DIRECTION('',(1.0,0.0,0.0));
#572=AXIS2_PLACEMENT_3D('',#569,#570,#571);
#573=PLANE('',#572);
#574=ORIENTED_EDGE('',*,*,#327,.T.);
#575=ORIENTED_EDGE('',*,*,#294,.F.);
#576=ORIENTED_EDGE('',*,*,#123,.T.);
#577=ORIENTED_EDGE('',*,*,#82,.F.);
#578=ORIENTED_EDGE('',*,*,#456,.T.);
#579=ORIENTED_EDGE('',*,*,#471,.T.);
#580=ORIENTED_EDGE('',*,*,#197,.T.);
#581=ORIENTED_EDGE('',*,*,#157,.F.);
#582=ORIENTED_EDGE('',*,*,#277,.T.);
#583=ORIENTED_EDGE('',*,*,#230,.F.);
#584=ORIENTED_EDGE('',*,*,#511,.T.);
#585=ORIENTED_EDGE('',*,*,#526,.T.);
#586=EDGE_LOOP('',(#574,#575,#576,#577,#578,#579,#580,#581,#582,#583,#584,#585));
#587=FACE_OUTER_BOUND('',#586,.T.);
#588=ORIENTED_EDGE('',*,*,#369,.T.);
#589=EDGE_LOOP('',(#588));
#590=FACE_BOUND('',#589,.T.);
#591=ORIENTED_EDGE('',*,*,#397,.T.);
#592=EDGE_LOOP('',(#591));
#593=FACE_BOUND('',#592,.T.);
#594=ORIENTED_EDGE('',*,*,#425,.T.);
#595=EDGE_LOOP('',(#594));
#596=FACE_BOUND('',#595,.T.);
#597=ADVANCED_FACE('',(#587,#590,#593,#596),#573,.F.);
#598=CLOSED_SHELL('',(#109,#142,#184,#215,#257,#281,#314,#345,#373,#401,#429,#460,#484,#515,#539,#568,#597));
#599=MANIFOLD_SOLID_BREP('Volumenk\S\vrper1',#598);
#600=COLOUR_RGB('Metall - Stahl',0.639216005802155,0.639216005802155,0.662745475769043);
#601=FILL_AREA_STYLE_COLOUR('Metall - Stahl',#600);
#602=FILL_AREA_STYLE('Metall - Stahl',(#601));
#603=SURFACE_STYLE_FILL_AREA(#602);
#604=SURFACE_SIDE_STYLE('Metall - Stahl',(#603));
#605=SURFACE_STYLE_USAGE(.BOTH.,#604);
#606=PRESENTATION_STYLE_ASSIGNMENT((#605));
#607=STYLED_ITEM('',(#606),#599);
#608=MECHANICAL_DESIGN_GEOMETRIC_PRESENTATION_REPRESENTATION('',(#607),#36);
#609=ADVANCED_BREP_SHAPE_REPRESENTATION('ABSR',(#599),#36);
#610=SHAPE_REPRESENTATION_RELATIONSHIP('SRR','None',#609,#41);
ENDSEC;
END-ISO-10303-21;
